Song name
# A B C D E F G H I J K L M N O P Q R S T U V W X Y Z

Killers - Shadowplay tab

Highlighted       Show chord diagrams
Shadowplay by Silversun Pickups frontman Brian Aubert covering Joy Division
Tabbed by: me, Hecko, Hector Flores (all the same person)

Watch the video on youtube to get a better idea of the tab

http://www.youtube.com/watch?v=x3-Jm5_xYhM

Cadd9 - x32033
Dsus4 - xx0233
D - xx0232
Em7 - 022033

Intro: [Cadd9] [D] [Em7] x4

        Cadd9                                            Em7
To the centre of the city where all roads meet, waiting for you,

        Cadd9                                               Em7
To the depths of the ocean where all hopes sank, searching for you,

       Cadd9                                              Em7
I was moving through the silence without motion, waiting for you,

      Cadd9                                    Em7
In a room with a window in the corner I found truth.

Little Solo Part

                                                Em7
e|-----------------------------------------------3-----------|
B|-----------3----3------------------------------3-----------|
G|-----~4~-----4--------~4~--------2-------------------------| x2
D|-----------------------------------------------2-----------|
A|-----------------------------------------------2-----------|
E|-----------------------------------------------------------|

Bridge:  [Cadd9] [Dsus4] [D] [Em7]

        Cadd9                                         Em7
In the shadowplay, acting out your own death, knowing no more,

        Cadd9                                        Em7
As the assassins all grouped in four lines, dancing on the floor,

          Cadd9                                          Em7
And with cold streel, odour on their bodies made a move to connect,

       Cadd9                                       Em7
But I could only stare in disbelief as the crowds all left.


Bridge:  [Cadd9] [Dsus4] [D] [Em7]  x4

                      at 4th fret
      Cadd9               Cadd9     Em7
I did everything, everything I wanted to,

      Cadd9                   Em7
I let them use you for their own ends,

        Cadd9                 D                    Em7
To the centre of the city in the night, waiting for you.

        Cadd9              Dsus4    D              Em7
To the centre of the city in the night, waiting for you.


Little Solo Part 2

                                                Em7
e|-----------------------------------------------3-----------|
B|-----------3----3------------------------------3-----------|
G|-----~4~-----4--------~4~--------2-------------------------| x2
D|-----------------------------------------------2-----------|
A|-----------------------------------------------2-----------|
E|-----------------------------------------------------------|


Outro:  [Cadd9] [Dsus4] [D] [Em7]  x4 * 

*the fourth time Brian increases the tempo on the chords so just listen to the song* and enjoy :D

Tap to rate this tab
# A B C D E F G H I J K L M N O P Q R S T U V W X Y Z