Song name
# A B C D E F G H I J K L M N O P Q R S T U V W X Y Z

Killers - The World We Live In tab

-------------------------------------------------------------------------------
			     THE WORLD WE LIVE IN - The Killers
-------------------------------------------------------------------------------
Tabbed by: bearwrestler45

Tuning:standard


For the chords, see the tab by rich-uk, it's perfect.


The line in the background throughout the song is just:

e|---------------------------------------------------------------------------|
B|---------------------------------------------------------------------------|
G|--5h7p5---5h7p5---5h7p5h7p5h7p5--------------------------------------------|
D|---------------------------------------------------------------------------|
A|---------------------------------------------------------------------------|
E|---------------------------------------------------------------------------|

And the little guitar solo after "maybe we'll make it through":

e|---------------------------------------------------------------------------|
B|-----------------b4-----------------------b6---------------------8--8------|
G|--5p4h5--5--5---------------5p4h5--5--5------------5p4h5--5--5-------------|
D|---------------------------------------------------------------------------|
A|---------------------------------------------------------------------------|
E|---------------------------------------------------------------------------|

e|---------------------------------------------------------------------------|
B|--8---8--------------------------------------------------------------------|
G|-----------5--------5h7----5p4p2p0-----------------------------------------|
D|---------------------------------------------------------------------------|
A|---------------------------------------------------------------------------|
E|---------------------------------------------------------------------------|


| /  slide up
| \  slide down
| h  hammer-on
| p  pull-off
| ~  vibrato
| +  harmonic
| x  Mute note
Tap to rate this tab
# A B C D E F G H I J K L M N O P Q R S T U V W X Y Z