Song name
# A B C D E F G H I J K L M N O P Q R S T U V W X Y Z

Killers - Losing Touch tab

Help us improve GuitareTab! Take a short survey!
Artist: The Killers
Song: Losing touch (solo part)
Album: Day&Age

Tabbed by: necriononguitar

Legend:
/= slide up
\= slide down
~= tremolo (tiny vibrato)
h= hammer-on
p= pull-off
b=bend
r=release

Solo: 3:23
E---/14~------------------------------------------------------------------|
B-------------12/14\12---12\9--9-9-9p7-----7------------------------------|
G---------------------------------------8-------6b8--8--6~----9--8----4-4-|
D-------------------------------------------------------------------------|
A-------------------------------------------------------------------------|
E-------------------------------------------------------------------------|

E---------14-------11-------11b-9----12--11--11p9p7--11b12r---7h9p7-------|
B----/12------14-------------------------------------12b13r---------------|
G-------------------------------------------------------------------------|
D-------------------------------------------------------------------------|
A-------------------------------------------------------------------------|
E-------------------------------------------------------------------------|

E-----------7-------9---------7-----------9-------7-------7------------|
B----9p7-7-----7h9-------7h9-------7h9-9-----9p7-----7h9-----7\5-5-----|
G----------------------------------------------------------------------|
D----------------------------------------------------------------------|
A----------------------------------------------------------------------|
E----------------------------------------------------------------------|

E---/12--11----------------------------------|
B------------12~(hard tremolo)-14(b)-12~-----|
G--------------------------------------------|
D--------------------------------------------|
A--------------------------------------------|
E--------------------------------------------|

Thats it, i hope its correct.
if not, please mail me: tim.rathgen@web.de

cheers...
Related for Losing Touch tab