Song name
# A B C D E F G H I J K L M N O P Q R S T U V W X Y Z

Killers - The World We Live In tab

This is sort of a solo really. I'm not sure what it is is anyway. Cos it's in the 
chord of Cm it's quite easy to figure it out. Cos every single note is in the Cm 
scale (Em 8th fret).


Cm                  Am                       G#
e---------------------------------------------
B---------------------------------------------
G----------------8h10----------------------b10
D10-8-10--10--10------------10-8-10--10--10---
A---------------------------------------------
E---------------------------------------------
               C
e--------------------------------------
B-------------8------8-----------------
G--------8-10-----10-----10------------
D10-8-10--------------------10-8-------
A--------------------------------10\8--
E-------------------------------------8

 /  slide up
 \  slide down
 h  hammer-on
 p  pull-off
 ~  vibrato
 +  harmonic 
 x  mute note
 b  bend
Tap to rate this tab
# A B C D E F G H I J K L M N O P Q R S T U V W X Y Z