Song name
# A B C D E F G H I J K L M N O P Q R S T U V W X Y Z

Killers - All These Things That Ive Done tab

-------------------------------------------------------------------------------
			                ALL THESE THINGS THAT I'VE DONE - The Killers
-------------------------------------------------------------------------------
Tabbed by: Mikey Sibson
Email: mikey.rider@gmail.com

Tuning: 1/2 Step Down

    When there's nowhere else to run - is there room for one more son
e|3-----------------------------------3------------------------------|
B|3-----------------------------------3-------------------------5----|
G|4-----------------------------------4-------------------------5----|
D|5-----------------------------------5-------------------------5----|
A|5-----------------------------------5-------------------------3----|
E|3-----------------------------------3------------------------------|

   One more son     If you can hold on   If you can hold on       hold on     
e|-----------3---3---0----1----3----0---------------------0-----------3------|
B|-----------3---x------------------0----0---2----4-------1---3-------3------|
G|-----------4---x------------------0---------------------0-----------4------|
D|-----------5---x------------------2---------------------2-----------5------|
A|-----------5---2------------------2---------------------3-----------5------|
E|-----------3---2------------------0---------------------------------3------|

Main riff: 
e|-------------------------------------------------------------------|
B|---3--3----3------3--3----3----------------------------------------|
G|---------4---0--0------4-----0---0--4--0--4--0--4--0--4--0--4--0--4|
D|-------------------------------------------------------------------|
A|-------------------------------------------------------------------|
E|-------------------------------------------------------------------|x2


Verse 1:
I wanna stand up, I wanna let go, you know you know no you don't you don't
C
I wanna shine on, in the hearts of men
G
I wanna mean it from the back of my broken hand
Another head aches, another heart breaks
I'm so much older than I can take
C
And my affection, well it comes and goes
Em/D
I need direction to perfection
No, no, no, no

Chorus:
G
Yeah you know you've gotta help me out
G                                C
Yeah, oh don't you put me on the backburner
G
You know you gotta help me out, yeah

Verse 2:
e|-------------------------------------------------------------------|
B|---3--3----3------3--3----3----------------------------------------|
G|---------4---0--0------4-----0---0--4--0--4--0--4--0--4--0--4--0--4|
D|-------------------------------------------------------------------|
A|-------------------------------------------------------------------|
E|-------------------------------------------------------------------|

Chorus:
G
Yeah you know you've gotta help me out
G                                C
Yeah, oh don't you put me on the backburner
G
You know you gotta help me out
G                                Em
Yeah you're gonna bring yourself down
Em                               C
Yeah you're gonna bring yourself down
C                                  G5
Yeah you're gonna bring yourself down


Bridge:
e|---------------------------------------------------------------------------|
B|---------------------------------------------------------------------------|
G|---------------------------------------------------------------------------|
D|5--------------------------------------------------------------------------|
A|5--------------------------------------------------------------------------|
E|3-3-3-3-3-3-3-3-3-3-3-3-3-3-3-3-3-3-3-3-3-3-3-3-3-3-3-3-3-3-3-3-3-3-3-3-3-3| x2

e|-----------------------------------------------------------------------|
B|-----------------------------------------------------------------------|
G|-----------------------------------------------------------------------|
D|5-5-5-5-5-5-5-5-5-5-5-5-5-5-5-5-5-5------------------------------------|
A|3-3-3-3-3-3-3-3-3-3-3-3-3-3-3-3-3-3------------------------------------|
E|--------------------------------------3-3-3-3-3-3-3-3-3-3-3-3-3-3-3-3-3|

                   
e|---------------------------------------------------------------|
B|---------------------------------------------------------------|
G|------------------------------------------5----5--5------------|
D|------------------5----5--5---5----5--5---5----5--5---5----5--5|
A|5-5-5-5-5-5-5-5---5----5--5---5----5--5---3----3--3---5----5--5|
E|3-3-3-3-3-3-3-3---3----3--3---3----3--3---------------3----3--3|

e|-----------------0-0-0-0-0-0-0-0-0-0-0-0-0-0-0-0-|
B|0-0-0-0-0-0-0-0--1-1-1-1-1-1-1-1-1-1-1-1-1-1-1-1-|
G|0-0-0-0-0-0-0-0--0-0-0-0-0-0-0-0-0-0-0-0-0-0-0-0-|
D|2-2-2-2-2-2-2-2--2-2-2-2-2-2-2-2-2-2-2-2-2-2-2-2-|
A|2-2-2-2-2-2-2-2--3-3-3-3-3-3-3-3-3-3-3-3-3-3-3-3-|
E|0-0-0-0-0-0-0-0----------------------------------|

                                                 Time, truth, hearts
e|---------------------------------------------------------------------------|
B|---------------------------------------------------------------------------|
G|---------------------------------------------------------------------------|
D|5-5-5-5-5-5-5-5-5-5-5-5-5-5-5-5-5-5-5-5-5-5-5-5-5-5-5-5-5-5-5-5------------|
A|5-5-5-5-5-5-5-5-5-5-5-5-5-5-5-5-5-5-5-5-5-5-5-5-5-5-5-5-5-5-5-5------------|
E|3-3-3-3-3-3-3-3-3-3-3-3-3-3-3-3-3-3-3-3-3-3-3-3-3-3-3-3-3-3-3-3------------|

e|---------------------------------------------------------------------------|
B|---------------------------------------------------------------------------|
G|---------------------------------------------------------------------------|
D|---------------------------------------------------------------------------|
A|---------------------------------------------------------------------------|
E|---------------------------------------------------------------------------|

G
Yeah you know you've gotta help me out
G                                C
Yeah, oh don't you put me on the backburner
G
You know you gotta help me out
G                                Em
Yeah you're gonna bring yourself down
Em                               C
Yeah you're gonna bring yourself down
G                                C
Yeah, oh don't you put me on the backburner
G                                Em
Yeah you're gonna bring yourself down
C                              
Yeah you're gonna bring yourself down

G
Over and out
C
Last call for sin
C                                      D
While everyone's lost, the battle is won
With all these things that I've done

e|-------------------------------------------------------------------|
B|---3--3----3------3--3----3----------------------------------------|
G|---------4---0--0------4-----0---0--4--0--4--0--4--0--4--0--4--0--4|
D|-------------------------------------------------------------------|
A|-------------------------------------------------------------------|
E|-------------------------------------------------------------------|

e|------------------------------------------------------------------------------------------|
B|---15--15--12--15---------15--15--12--15--------12----12----12----12----12----12----12--15|
G|------------------12---12----------------12--12----12----12----12----12----12----12-------|
D|------------------------------------------------------------------------------------------|
A|------------------------------------------------------------------------------------------|
E|------------------------------------------------------------------------------------------|

e|----------------------------|
B|---3----3------3--3----3----|
G|------4---0--0------4-----0-|
D|----------------------------|
A|----------------------------|
E|----------------------------|

e|--------------------------------------------------------------------------------------|
B|---15--12--15---------15--15--12--15--------12----12----12----12----12----12--------12|
G|--------------11---11----------------11--11----12----12----12----12----12----12-------|
D|--------------------------------------------------------------------------------------|
A|--------------------------------------------------------------------------------------|
E|--------------------------------------------------------------------------------------|

e|--------------------------------------------------------------------------------------|
B|---15--12--15---------15--15--12--15--------12----12----12----12----12----12--------12|
G|--------------11---11----------------11--11----12----12----12----12----12----12-------|
D|--------------------------------------------------------------------------------------|
A|--------------------------------------------------------------------------------------|
E|--------------------------------------------------------------------------------------|




| /  slide up
| \  slide down
| h  hammer-on
| p  pull-off
| ~  vibrato
| +  harmonic
| x  Mute note
===============================================================================
Tap to rate this tab
# A B C D E F G H I J K L M N O P Q R S T U V W X Y Z