Song name
# A B C D E F G H I J K L M N O P Q R S T U V W X Y Z

Killers - Romeo And Juliet tab

CAPO ON 7TH FRET

Intro: 
 D               A      G
-2---------2------------3----------------------|
-3---3-------3---2------0---0-----0-----2h3-5--|
-2-----2-----------2----0-----0-----0----------|
-0-0-----0-----0-----2--0-0-----0-----0--------|
------------------------2----------------------|
------------------------3----------------------|

 D               A      G               A
-2---------2------------3----------------------|
-3---3-------3---2------0---0-----0-----2------|
-2-----2-----------2----0-----0-----0-----2----|
-0-0-----0-----0-----2--0-0-----0-----0-----2--|
------------------------2----------------------|
------------------------3----------------------|

 D               A      G
-2---------2------------3----------------------|
-3---3-------3---2------0---0-----0-----2h3-5--|
-2-----2-----------2----0-----0-----0----------|
-0-0-----0-----0-----2--0-0-----0-----0--------|
------------------------2----------------------|
------------------------3----------------------|

 D               A      G               A
-2---------2------------3----------------------|
-3---3-------3---2------0---0-----0-----2------|
-2-----2-----------2----0-----0-----0-----2----|
-0-0-----0-----0-----2--0-0-----0-----0-----2--|
------------------------2----------------------|
------------------------3----------------------|


  D                      Bm
    A Lovestruck Romeo     sings the street's a serenade.
A D                      Bm                  A           G
   Laying everybody low,     with a lovesong that he made.
A                     G A                  D            G
  Finds A Streetlight,   steps out in the shade says something like
                           A
 "You and Me Babe,   How about it?"


D                             A Bm
  Juliet says, "Hey, it's Romeo, you nearly gave me a heart attack"
A D
   He's underneath the window
A  Bm                         Bm
  she's singing "Hey, la, my boyfriend's back
A                                Bm  A                    G
  You shouldn't come around here, singing up people like that
Bm                               A  A  A
  Anyway, what you gonna do about it?"

CHORUS 1
D     A                 Bm              G
Juliet, the dice was loaded from the start.
       D    A       Bm             G
And i bet,   you exploded in my heart.
          D        A          Bm     G
And i forget, i forget, the movie song.
E                            G                      Bm   A
When You Gonna Realise It was just that the time was wrong?
D
 Juliet.

 D               A      G
-2---------2------------3----------------------|
-3---3-------3---2------0---0-----0-----2h3-5--|
-2-----2-----------2----0-----0-----0----------|
-0-0-----0-----0-----2--0-0-----0-----0--------|
------------------------2----------------------|
------------------------3----------------------|

 D               A      G               A
-2---------2------------3----------------------|
-3---3-------3---2------0---0-----0-----2------|
-2-----2-----------2----0-----0-----0-----2----|
-0-0-----0-----0-----2--0-0-----0-----0-----2--|
------------------------2----------------------|
------------------------3----------------------|

 D                              Bm
  Come up on different streets,   they both were streets of shame,
 D                        Bm                         Bm
   Both dirty, both mean,   yes, and the dream was just the same,
A                                 Bm A                        G     
And I dreamed your dream for you,   and now your dream is real
Bm                               A
How can you look at me as if I was just another one of your deals?


D                                      A Bm
When you can fall for chains of silver,   you can fall for chains of gold
A D                                  A Bm                       Bm
   You can fall for pretty strangers    and the promises they hold
A                           G A               G
 You promised me everything,  you promised me thick and thin, yeah
Bm                                  Bm    A    A    A    A    A
Now you just say,'Oh Romeo,yeah, you know I used to have ascene with him'


CHORUS 2
D     A                 Bm              G
Juliet, when we made love you used to cry
            D          A               Bm                G
I said I love you like the stars above, I'll love you till I die
              D     A       Bm       G
And there's a place for us, you know the movie song
E                            G                      Bm   A
When You Gonna Realise It was just that the time was wrong?
D
 Juliet.



 D               A      G
-2---------2------------3----------------------|
-3---3-------3---2------0---0-----0-----2h3-5--|
-2-----2-----------2----0-----0-----0----------|
-0-0-----0-----0-----2--0-0-----0-----0--------|
------------------------2----------------------|
------------------------3----------------------|

 D               A      G               A
-2---------2------------3----------------------|
-3---3-------3---2------0---0-----0-----2------|
-2-----2-----------2----0-----0-----0-----2----|
-0-0-----0-----0-----2--0-0-----0-----0-----2--|
------------------------2----------------------|
------------------------3----------------------|


D                     Bm 
I can't do the talks,  like they talk on the TV
A D                           Bm           A          G 
  And I can't do a love song,   like the way it's meant to be
A                      G A                             G
 I can't do everything,   but I'll do anything for you
Bm                    Bm     A 
I can't do anything 'except be in love with you


D                          Bm
  And all I do is miss you   and the way we used to be
D                            Bm      A      G
  All I do is keep the beat,  and bad company
A                          G A                        G
  And all I do is kiss you,    through the bars of a rhyme
Bm                                Bm A A A A A
 Juliet I'd do the stars with you, anytime



CHORUS 2
D     A                 Bm              G
Juliet, when we made love you used to cry
            D          A               Bm                G
I said I love you like the stars above, I'll love you till I die
              D     A       Bm       G
And there's a place for us, you know the movie song
E                            G                      Bm   A
When You Gonna Realise It was just that the time was wrong?
D
 Juliet.

 D               A      G
-2---------2------------3----------------------|
-3---3-------3---2------0---0-----0-----2h3-5--|
-2-----2-----------2----0-----0-----0----------|
-0-0-----0-----0-----2--0-0-----0-----0--------|
------------------------2----------------------|
------------------------3----------------------|

 D               A      G               A
-2---------2------------3----------------------|
-3---3-------3---2------0---0-----0-----2------|
-2-----2-----------2----0-----0-----0-----2----|
-0-0-----0-----0-----2--0-0-----0-----0-----2--|
------------------------2----------------------|
------------------------3----------------------|

  D                      Bm
    A Lovestruck Romeo     sings the street's a serenade.
A D                      Bm                  A           G
   Laying everybody low,     with a lovesong that he made.
A                     G A                  D            G
  Finds A Streetlight,   steps out in the shade says something like
                           A
 "You and Me Babe,   How about it?"


Bm A (5x)   D 

Tap to rate this tab
# A B C D E F G H I J K L M N O P Q R S T U V W X Y Z