Song name
# A B C D E F G H I J K L M N O P Q R S T U V W X Y Z

Killers - Joseph Better You Than Me tab

Standard tuning
*The slides might be wrong so tell me if there's any corrections that need to be made. 
This is my first tab so let me know how it is.*

e|--------------------------------------------------------------------|
B|-----9-10p9-12----14p12p10-16p12-17---------------------------------|
G|-5/9--9-------7/11-----------------18-------------------------------|
D|-------------------------------------18sb-18sb-18bp16-18bp16p14--14-|
A|---------------------------------------------------------------16---|
E|--------------------------------------------------------------------|


 
e|-------------------------------16-/1616--19p16--17p16--19p16--17p16--16-14sb|
B|-12/17p12-------14-17p12-----17--------17-----17-----17-----17-----17-------|
G|---------16p1316--------16p13-----------------------------------------------|
D|----------------------------------------------------------------------------|
A|----------------------------------------------------------------------------|
E|----------------------------------------------------------------------------|
Tap to rate this tab
 
# A B C D E F G H I J K L M N O P Q R S T U V W X Y Z