Song name
# A B C D E F G H I J K L M N O P Q R S T U V W X Y Z

Killers - Spaceman tab

-------------------------------------------------------------------------------
			     Spaceman - The Killers
-------------------------------------------------------------------------------
Tabbed by: Ur mom.
Email:

Tuning: Standard.

Chorus/Intro
e|-----------------------------------------------------------------------------|
B|-----------------------------------------------------------------------------|
G|-----------------------------------------------------------------------------|
D|----999999999--------6666666---------5555555---------------------------------|
A|----777777777--------4444444---------7777777---------7777777------7777777----|
E|-----------------------------------------------------5555555------5555555----|

e|---------------------------------------------------------------------------|
B|---------------------------------------------------------------------------|
G|---------------------------------------------------------------------------|
D|------666666666------------------------------------------------------------|
A|------444444444----------666666666---------------999999999-----------------|
E|-------------------------4444444444---------------7777777------------------|

Verse # 1
 e|--------------------------------------------------------------------------|
B|---------------------------------------------------------------------------|
G|---------------------------------------------------------------------------|
D|---------------9-9-9-------7-7----------------------9--9--7----------------|
A|------7-7-7--------------------------------7-7-7---------------------------|
E|---------------------------------------------------------------------------|

e|---------------------------------------------------------------------------|
B|---------------------------------------------------------------------------|
G|---------------------------------------------------------------------------|
D|-----------------9-9-9----7-7-----------------------9-9-7------------------|
A|------7-7-7-------------------------------7-7-7----------------------------|
E|---------------------------------------------------------------------------|

e|---------------------------------------------------------------------------|
B|---------------------------------------------------------------------------|
G|---------------------------------------------------------------------------|
D|---------------------------------------------------------------------------|
A|-------------9-9-9----7-7------------------11---11----9--------------------|
E|----7-7-7--------------------------9-9-9-----------------------------------|

e|---------------------------------------------------------------------------|
B|---------------------------------------------------------------------------|
G|---------------------------------------------------------------------------|
D|---------------------------------------------7--7---6----------------------|
A|-------------9-9-9----7-7--------------------------------------------------|
E|-----7-7-7------------------------7-7-7------------------------------------|

Pre Chorus

         A      B
And you know I might
           C#m      G#m           A          B
Have just flown too far from the floor this time,
             C#m             G#m
'cause they calling me by my name!
         A
And the zipping white light beams
 B            G#             C#m
disregarding bombs and satellites!
B --
That was the turning point;
B --
That was one lonely night!


Chorus.  1 x


Couplet # 1 play 1 x
Then,
Couplet # 2
e|---------------------------------------------------------------------------|
B|---------------------------------------------------------------------------|
G|---------------------------------------------------------------------------|
D|----9-9-9---7-7-7---6-6-6--------------------------------------------------|
A|---------------------------------------------------------------------------|
E|---------------------------------------------------------------------------|

Play that 4 x ^


e|---------------------------------------------------------------------------|
B|---------------------------------------------------------------------------|
G|-----8-8-8----6-6-6--------------------------------------------------------|
D|------------------------9--9---------6-6-6---------------------------------|
A|---------------------------------------------9-9-9----7-7------------------|
E|---------------------------------------------------------------------------|

e|---------------------------------------------------------------------------|
B|---------------------------------------------------------------------------|
G|---------------------------------------------------------------------------|
D|---7-7-7-----6-6-6---------------------------------------------------------|
A|------------------------9-9------------------------------------------------|
E|---------------------------------------------------------------------------|

Play that 2 x ^

Then Pre Chorus 1 x
Refrein 2 x


Bridge =  No guitar.

Refrein # 2
e|---------------------------------------------------------------------------|
B|---------------------------------------------------------------------------|
G|---------------------------------------------------------------------------|
D|-------9999999-------9999999-----------------------------------------------|
A|-------7777777-------6666666-------7777777-----7777777--------9999999------|
E|-----------------------------------5555555------4444444-------7777777------|

e|---------------------------------------------------------------------------|
B|---------------------------------------------------------------------------|
G|---------------------------------------------------------------------------|
D|---------------------------------------------------------------------------|
A|---------11111111--------7777777-----9999999-------------------------------|
E|---------9999999---------5555555-----7777777-------------------------------|
These are 11's, not 1's ^

Play that 2x, after that 1x Refrein 1.

End.
************************************
Tap to rate this tab
# A B C D E F G H I J K L M N O P Q R S T U V W X Y Z