Song name
# A B C D E F G H I J K L M N O P Q R S T U V W X Y Z

Killers - Change Your Mind tab

The Killers
Change Your Mind
Hot Fuss

Tabbed by: mountaindewQ2

Tuning: EADGBE

I haven't seen a correct version of the intro yet on this site, so here is one 
that I am 99% sure is right and 100% sure sounds right.

The intro also runs throughout the song, so if you learn this, you've already 
learned half of the song.

|-------------------------------------------------------|
|-6--6-5-6-5--6--5--6--5-6-5-6--6-5-6-5--6--5--6--5-6-5-|
|-5--5-5-5-5--5--5--5--5-5-5-5--5-5-5-5--5--5--5--5-5-5-|
|-7--7-7-7-7--7--7--7--7-7-7-7--7-7-7-7--7--7--7--7-7-7-|
|----------------------------8--8-8-8-8--8--8--8--8-8-8-|
|-------------------------------------------------------|


|----------------------------| \
|-6--6-5-6-5--6--5--6--5-6-5-|  \
|-5--5-5-5-5--5--5--5--5-5-5-|   x2
|-7--7-7-7-7--7--7--7--7-7-7-|   /
|-8--8-8-8-8--8--8--8--8-8-8-|  /
|----------------------------| /

Any feedback is appreciated, as this is my first tab. Thanks!
Tap to rate this tab
 
# A B C D E F G H I J K L M N O P Q R S T U V W X Y Z