Killers - Jenny Was A Friend Of Mine tab

-------------------------------------------------------------------------------
	             Jenny Was A Friend Of Mine - The Killers
-------------------------------------------------------------------------------
Tabbed by: gastelum
Email: enrike_g22@hotmail.com

Tuning: Standard

Note: I tabed this by ear while my guitar was at Standar tuning. 
But probably The Killers use another tuning as they do for mostly 
of their songs.

This comes almost at the end of the song:

e|------18----14---16-14-13---------18-18-18-18-|
B|-16-----------------------14-16---------------|
G|----------------------------------------------|
D|----------------------------------------------|
A|----------------------------------------------|
E|----------------------------------------------|

e|---------16-18-16------------13-14-16-16-------------------------18-18-16-16-|
B|-16--16-----------14--14--14-------------12--12---11--12--12--12-------------|
G|-----------------------------------------------------------------------------|x2
D|-----------------------------------------------------------------------------|
A|-----------------------------------------------------------------------------|
E|-----------------------------------------------------------------------------|

e|---------16-18-16------------18-16-14-14-------------------------18-18-16-16-|
B|-16--16-----------14--14--14-------------12--12---11--12--12--12-------------|
G|-----------------------------------------------------------------------------|
D|-----------------------------------------------------------------------------|
A|-----------------------------------------------------------------------------|
E|-----------------------------------------------------------------------------|

e|---------16-18-16------------13-14-16-16-------------------------18-18-16-16-18-|
B|-16--16-----------14--14--14-------------12--12---11--12--12--12----------------|
G|--------------------------------------------------------------------------------|
D|--------------------------------------------------------------------------------|
A|--------------------------------------------------------------------------------|
E|--------------------------------------------------------------------------------|

Then he keeps playing e|-18-| but like in a fast way and palm muting, 
personally Im not able to play that as he does, if you then try it.
************************************

| /   slide up
| \   slide down
| h   hammer-on
| p   pull-off
| ~   vibrato
| +   harmonic
| x   Mute note
| b   Bend
| pb  Pre-bend
| br  Bend release
| pbr Pre-bend release
| brb Bend release bend

************************************
Tap to rate this tab
 
# A B C D E F G H I J K L M N O P Q R S T U V W X Y Z