Killers - Sams Town tab

-------------------------------------------------------------------------------
			     Sams Town (Abbey Road Version) - The Killers
-------------------------------------------------------------------------------
Tabbed by: Jooonny
Email:

Tuning: Standard EADGBe


This is just the way Brandon plays it on the piano

e|--------9--------------9-12-9---------------------------------------------|
B|-----10---10----------------------------10--------------------------------|
G|-------------------------------------11----11-----------------------------|
D|--7-----------------11-------------9--------------------------------------|
A|--------------------------------------------------------------------------|
E|--------------------------------------------------------------------------|

e|---------9---------------------12-----------------12-16-12----------------|
B|------10---10--------------14------14-------------------------------------|
G|--------------------------------------------------------------------------|
D|--7-----------------------------------------------------------------------|
A|-----------------------9--------------------------------------------------|
E|-------------------------------------------------9------------------------|
Tap to rate this tab
 
# A B C D E F G H I J K L M N O P Q R S T U V W X Y Z