Killers - Joy Ride tab

Band: The Killers
Album: Day & Age
Year:2008
Song: Joy Ride
Transcribed by Nicholas


Verse 1
E|--8---8---7-8---|--5--5--5-5------|
B|--10--10--8-10--|--6--6--5-6------|
G|--9---9---7-9---|--7--7--5-7------|  X4
D|----------------|-----------------|
A|----------------|-----------------|
E|----------------|-----------------|
It's getting close to sundown over the Sierra
Stranded on the heatwave burning with desire
She was on the sidewalk looking for a night light
We talked about the real things
And drove into the fire


E|--8---8--------------|--5--5--5-5-5-5--|
B|--10--10--8-10-8--8--|--6--6--5-6-5-6--|
G|--9---9---7-9---9----|--7--7--5-7-5-7--|  X4
D|---------------------|-----------------|
A|---------------------|-----------------|
E|---------------------|-----------------|
Headlights on the highway
The desert wind is howling
Rattlesnakes and romance
Is spilling with the rain
Candy apple red dress
Bleeding when she kissed me
Heaven in a ragtop
Take away my pain

Chorus
E|--33-3--33-3--|--55-5--55-5--|--11-1--11--1--|--11-1--11--1--|
B|--33-3--33-3--|--55-5--55-5--|--11-1--11--1--|--11-1--11--1--|
G|--44-4--44-4--|--55-5--55-5--|--22-2--22--2--|--22-2--22--2--|
D|--55-5--55-5--|--------------|--33-3--33--3--|--33-3--33--3--|
A|--------------|--------------|---------------|---------------|
E|--------------|--------------|---------------|---------------|


E|--33-3--55-5--|--1010-10--88---8---|--11-1--11--1--|--11-1--11--1--|
B|--33-3--55-5--|--1010-10--88---8---|--11-1--11--1--|--11-1--11--1--|
G|--44-4--55-5--|--1010-10--99---9---|--22-2--22--2--|--22-2--22--2--|
D|--55-5--------|----------1010--10--|--33-3--33--3--|--33-3--33--3--|
A|--------------|--------------------|---------------|---------------|
E|--------------|--------------------|---------------|---------------|
When your chips are down
When your highs are low
Joyride
Move across the night
Like a seperate wind

Saxophone Solo
E|--8---8--------------|--5--5--5-5-5-5--|
B|--10--10--8-10-8--8--|--6--6--5-6-5-6--|
G|--9---9---7-9---9----|--7--7--5-7-5-7--|  X2
D|---------------------|-----------------|
A|---------------------|-----------------|
E|---------------------|-----------------|

Verse 2
E|--8---8--------------|--5--5--5-5-5-5--|
B|--10--10--8-10-8--8--|--6--6--5-6-5-6--|
G|--9---9---7-9---9----|--7--7--5-7-5-7--|X2
D|---------------------|-----------------|
A|---------------------|-----------------|
E|---------------------|-----------------|

E|--------------------|--2--0-----------|
B|--------------------|--3--1-----------|
G|--------0-----2-----|--2--0------0-2--|X2
D|--0--2-----2--------|-----------------|
A|--------------------|-----------------|
E|--------------------|-----------------|
Pulled up to a motel
"Vacancy" was buzzing
Pink and dirty neon
Settle on the hood
Wrapped her arms around me
Come a little closer
Stumble in the twilight
And fell onto the floor
Loving Mona Lisa
Dreaming of the free world
Lipstick on the nightstand
And demons at the door

Chorus 2

E|--33-3--33-3--|--55-5--55-5--|--11-1--11--1--|--11-1--11--1--|
B|--33-3--33-3--|--55-5--55-5--|--11-1--11--1--|--11-1--11--1--|
G|--44-4--44-4--|--55-5--55-5--|--22-2--22--2--|--22-2--22--2--|
D|--55-5--55-5--|--------------|--33-3--33--3--|--33-3--33--3--|
A|--------------|--------------|---------------|---------------|
E|--------------|--------------|---------------|---------------|


E|--33-3--55-5--|--1010-10--88---8---|--11-1--11--1--|--11-1--11--1--|
B|--33-3--55-5--|--1010-10--88---8---|--11-1--11--1--|--11-1--11--1--|
G|--44-4--55-5--|--1010-10--99---9---|--22-2--22--2--|--22-2--22--2--|
D|--55-5--------|----------1010--10--|--33-3--33--3--|--33-3--33--3--|
A|--------------|--------------------|---------------|---------------|
E|--------------|--------------------|---------------|---------------|
When your chips are down
When your highs are low
Joyride
Move across the night
Like a seperate wind


When your hopes and dreams
Lose the will to go
Joyride
Reaching for the light
Knowing we can't win

Bridge

E|--8-8--8---8-8--8---|--33--3--33--3|
B|--8-8--8---8-8--8---|--33--3--33--3|
G|--9-9--9---9-9--9---|--44--4--44--4|
D|--1010-10--1010-10--|--55--5--55--5|
A|--------------------|--------------|
E|--------------------|--------------|

E|--55-5--55-5--|--11-1--11-1--|
B|--55-5--55-5--|--11-1--11-1--|
G|--55-5--55-5--|--22-2--22-2--|
D|--------------|--33-3--33-3--|
A|--------------|--------------|
E|--------------|--------------|


E|--8-8--8---8-8--8---|--33--3--33--3|
B|--8-8--8---8-8--8---|--33--3--33--3|
G|--9-9--9---9-9--9---|--44--4--44--4|
D|--1010-10--1010-10--|--55--5--55--5|
A|--------------------|--------------|
E|--------------------|--------------|

E|--55-5--55-5--|--22-2--22-2--|--11-1--11-1--|--11-1--11-1--|
B|--55-5--55-5--|--33-3--33-3--|--33-3--33-3--|--33-3--33-3--|
G|--55-5--55-5--|--22-2--22-2--|--22-2--22-2--|--22-2--22-2--|
D|--------------|--------------|--------------|--------------|
A|--------------|--------------|--------------|--------------|
E|--------------|--------------|--------------|--------------|

E|--11--1--11--1--|--11--1--11--1--|
B|--11--1--11--1--|--11--1--11--1--|
G|--22--2--22--2--|--22--2--22--2--|
D|--33--3--33--3--|--33--3--33--3--|
A|----------------|----------------|
E|----------------|----------------|

There's something in the distance
A glorious existance
A simple celebration
A place you've never been before
(Won't you kiss me)
Tell me that you want it more

Repeat Chorus Fade out

Hope you enjoyed it!
Tap to rate this tab
 
# A B C D E F G H I J K L M N O P Q R S T U V W X Y Z