Killers - Mr Brightside Acoustic tab

                         Mr. Brightside Acoustic

This is my own version of Mr Brightside.
This was based on the Boyce Avenue Version and the orginal version.
Comments are welcome. :)


Guitar 1

Intro/Verse 1 (Plucking) x5
--------------0-----------|--------------0-----------|
-----------------5--------|-----------------5--------|
--------5-----------5-----|--------5-----------5-----|
-----4-----4-----------4--|-----4-----4-----------4--|
--5-----------------------|--4-----------------------|
--------------------------|--------------------------|



--------------0-----------|--------------0-----------|
-----------------5--------|-----------------5--------|
--------5-----------5-----|--------5-----------5-----|
-----4-----4-----------4--|-----4-----4-----------4--|
--------------------------|--------------------------|
--5-----------------------|--5-----------------------|


Pre-chorus (Plucking) x2
--------------0--0--------|--------------0--0--------|
--------------------------|--------------------------|
--------5-----------5-----|--------5-----------5-----|
-----0-----0-----------0--|-----0-----0-----------0--|
--2-----------------------|--2-----------------------|
--------------------------|--------------------------|


--------------0--0--------|--------------0--0--------|
--------------------------|--------------------------|
--------5-----------5-----|--------5-----------5-----|
-----0-----0-----------0--|-----0-----0-----------0--|
--0-----------------------|--0-----------------------|
--------------------------|--------------------------|


--------------0--0--------|--------------0--0--------|
--------------------------|--------------------------|
--------5-----------5-----|--------5-----------5-----|
-----0-----0-----------0--|-----0-----0-----------0--|
--------------------------|--------------------------|
--5-----------------------|--5-----------------------|


--------------0--0--------|--------------0--0--------|
--------------------------|--------------------------|
--------5-----------5-----|--------5-----------5-----|
-----0-----0-----------0--|-----0-----0-----------0--|
--------------------------|--------------------------|
--5-----------------------|--5-----------------------|






Chorus (Strumming) x4
--2--2--2--2--2--2--2--2--|--5--5--5--5--5--5--5--5--|
--3--3--3--3--3--3--3--3--|--3--3--3--3--3--3--3--3--|
--0--0--0--0--0--0--0--0--|--0--0--0--0--0--0--0--0--|
--0--0--0--0--0--0--0--0--|--0--0--0--0--0--0--0--0--|
--0--0--0--0--0--0--0--0--|--x--x--x--x--x--x--x--x--|
--0--0--0--0--0--0--0--0--|--5--5--5--5--5--5--5--5--|


--0--0--0--0--0--0--0--0--|--0--0--0--0--0--0--0--0--|
--3--3--3--3--3--3--3--3--|--5--5--5--5--5--5--5--5--|
--0--0--0--0--0--0--0--0--|--0--0--0--0--0--0--0--0--|
--4--4--4--4--4--4--4--4--|--7--7--7--7--7--7--7--7--|
--2--2--2--2--2--2--2--2--|--0--0--0--0--0--0--0--0--|
--------------------------|--------------------------|


Bridge (Strumming) x2
--2--2--2--2--2--2--2--2--|--5--5--5--5--5--5--5--5--|
--3--3--3--3--3--3--3--3--|--3--3--3--3--3--3--3--3--|
--0--0--0--0--0--0--0--0--|--0--0--0--0--0--0--0--0--|
--0--0--0--0--0--0--0--0--|--0--0--0--0--0--0--0--0--|
--0--0--0--0--0--0--0--0--|--x--x--x--x--x--x--x--x--|
--0--0--0--0--0--0--0--0--|--5--5--5--5--5--5--5--5--|


--0--0--0--0--0--0--0--0--|--0--0--0--0--0--0--0--0--|
--3--3--3--3--3--3--3--3--|--5--5--5--5--5--5--5--5--|
--0--0--0--0--0--0--0--0--|--0--0--0--0--0--0--0--0--|
--4--4--4--4--4--4--4--4--|--7--7--7--7--7--7--7--7--|
--2--2--2--2--2--2--2--2--|--0--0--0--0--0--0--0--0--|
--------------------------|--------------------------|


Verse 2 (Plucking) x4
--------------0-----------|--------------0-----------|
-----------------5--------|-----------------5--------|
--------5-----------5-----|--------5-----------5-----|
-----4-----4-----------4--|-----4-----4-----------4--|
--5-----------------------|--4-----------------------|
--------------------------|--------------------------|



--------------0-----------|--------------0-----------|
-----------------5--------|-----------------5--------|
--------5-----------5-----|--------5-----------5-----|
-----4-----4-----------4--|-----4-----4-----------4--|
--------------------------|--------------------------|
--5-----------------------|--5-----------------------|





Pre-chorus (Plucking) x2
--------------0--0--------|--------------0--0--------|
--------------------------|--------------------------|
--------5-----------5-----|--------5-----------5-----|
-----0-----0-----------0--|-----0-----0-----------0--|
--2-----------------------|--2-----------------------|
--------------------------|--------------------------|


--------------0--0--------|--------------0--0--------|
--------------------------|--------------------------|
--------5-----------5-----|--------5-----------5-----|
-----0-----0-----------0--|-----0-----0-----------0--|
--0-----------------------|--0-----------------------|
--------------------------|--------------------------|


--------------0--0--------|--------------0--0--------|
--------------------------|--------------------------|
--------5-----------5-----|--------5-----------5-----|
-----0-----0-----------0--|-----0-----0-----------0--|
--------------------------|--------------------------|
--5-----------------------|--5-----------------------|


--------------0--0--------|--------------0--0--------|
--------------------------|--------------------------|
--------5-----------5-----|--------5-----------5-----|
-----0-----0-----------0--|-----0-----0-----------0--|
--------------------------|--------------------------|
--5-----------------------|--5-----------------------|


Chorus (Strumming) x4
--2--2--2--2--2--2--2--2--|--5--5--5--5--5--5--5--5--|
--3--3--3--3--3--3--3--3--|--3--3--3--3--3--3--3--3--|
--0--0--0--0--0--0--0--0--|--0--0--0--0--0--0--0--0--|
--0--0--0--0--0--0--0--0--|--0--0--0--0--0--0--0--0--|
--0--0--0--0--0--0--0--0--|--x--x--x--x--x--x--x--x--|
--0--0--0--0--0--0--0--0--|--5--5--5--5--5--5--5--5--|


--0--0--0--0--0--0--0--0--|--0--0--0--0--0--0--0--0--|
--3--3--3--3--3--3--3--3--|--5--5--5--5--5--5--5--5--|
--0--0--0--0--0--0--0--0--|--0--0--0--0--0--0--0--0--|
--4--4--4--4--4--4--4--4--|--7--7--7--7--7--7--7--7--|
--2--2--2--2--2--2--2--2--|--0--0--0--0--0--0--0--0--|
--------------------------|--------------------------|









Ad. Lib. (One Strum each) (x2)
--2----------------|--5----------------|--0----------------|--0----------------|
--3----------------|--3----------------|--3----------------|--5----------------|
--0----------------|--0----------------|--0----------------|--0----------------|
--0----------------|--0----------------|--4----------------|--7----------------|
--0----------------|--x----------------|--2----------------|--0----------------|
--0----------------|--5----------------|-------------------|-------------------|


--2----------------|--5----------------|--0----------------|--0----------------|
--3----------------|--3----------------|--3----------------|--5----------------|
--0----------------|--0----------------|--0----------------|--0----------------|
--0----------------|--0----------------|--4----------------|--7----------------|
--0----------------|--x----------------|--2----------------|--0----------------|
--0----------------|--5----------------|-------------------|-------------------|



Outro Part 1  (Strumming) x3
--2--2--2--2--2--2--2--2--|--5--5--5--5--5--5--5--5--|
--3--3--3--3--3--3--3--3--|--3--3--3--3--3--3--3--3--|
--0--0--0--0--0--0--0--0--|--0--0--0--0--0--0--0--0--|
--0--0--0--0--0--0--0--0--|--0--0--0--0--0--0--0--0--|
--0--0--0--0--0--0--0--0--|--x--x--x--x--x--x--x--x--|
--0--0--0--0--0--0--0--0--|--5--5--5--5--5--5--5--5--|


--0--0--0--0--0--0--0--0--|--0--0--0--0--0--0--0--0--|
--3--3--3--3--3--3--3--3--|--5--5--5--5--5--5--5--5--|
--0--0--0--0--0--0--0--0--|--0--0--0--0--0--0--0--0--|
--4--4--4--4--4--4--4--4--|--7--7--7--7--7--7--7--7--|
--2--2--2--2--2--2--2--2--|--0--0--0--0--0--0--0--0--|
--------------------------|--------------------------|

Outro Part 2 (Strumming)
--2--2--2--2--2--2--2--2--|--5--5--5--5--5--5--5--5--|
--3--3--3--3--3--3--3--3--|--3--3--3--3--3--3--3--3--|
--0--0--0--0--0--0--0--0--|--0--0--0--0--0--0--0--0--|
--0--0--0--0--0--0--0--0--|--0--0--0--0--0--0--0--0--|
--0--0--0--0--0--0--0--0--|--x--x--x--x--x--x--x--x--|
--0--0--0--0--0--0--0--0--|--5--5--5--5--5--5--5--5--|

--0--0--0--0--0--0--0--0--|--0----0----0--------|
--3--3--3--3--3--3--3--3--|--5----3----2--------|
--0--0--0--0--0--0--0--0--|--0----0----0--------|
--4--4--4--4--4--4--4--4--|--7----2----2--------|
--2--2--2--2--2--2--2--2--|--0----0----0--------|
--------------------------|---------------------|


Guitar 2

Tuning: Half-step down
1-d#    4-C#
2-A#    5-G#
3-F#    6-D#

Intro (Guitar 1)


Verse  1 (Strumming-Palm mute)(Start at “Coming out of my cage”) x4
--------------------------|--------------------------|
--------------------------|--------------------------|
--7--7--7--7--7--7--7--7--|--7--7--7--7--7--7--7--7--|
--7--7--7--7--7--7--7--7--|--7--7--7--7--7--7--7--7--|
--5--5--5--5--5--5--5--5--|--4--4--4--4--4--4--4--4--|
--------------------------|--------------------------|


--------------------------|--------------------------|
--4--4--4--4--4--4--4--4--|--4--4--4--4--4--4--4--4--|
--5--5--5--5--5--5--5--5--|--5--5--5--5--5--5--5--5--|
--5--5--5--5--5--5--5--5--|--5--5--5--5--5--5--5--5--|
--3--3--3--3--3--3--3--3--|--3--3--3--3--3--3--3--3--|


Pre chorus (Strumming)


----------------------|
--3----3----3----3----|
--4----4----4----4----|
--4----4----4----4----|
--2----2----2----2----|
----------------------|


----------------------|---------------------|----------------------|
----------------------|---------------------|----------------------|
--4----4----4----4----|--9------7------6----|--4----4----4----4----|
--5----5----5----5----|--9------7------6----|--5----5----5----5----|
--5----5----5----5----|--7------5------4----|--5----5----5----5----|
--3----3----3----3----|---------------------|--3----3----3----3----|


---------------------|----------------------|----------------------|
--3------------------|--3----3----3----3----|----------------------|
--4------6------7----|--4----4----4----4----|--11------9------7----|
--4------6------7----|--4----4----4----4----|--11------9------7----|
--2------4------5----|--2----2----2----2----|---9------7------5----|
---------------------|----------------------|----------------------|






----------------------|----------------------|--------------------------|
--2----2----2----2----|----------------------|--------------------------|
--2----2----2----2----|--11------9------7----|-----4--4--4--4--4--4--4--|
--2----2----2----2----|--11------9------7----|--4--5--5--5--5--5--5--5--|
--0----0----0----0----|---9------7------5----|--4--5--5--5--5--5--5--5--|
----------------------|----------------------|--2--3--3--3--3--3--3--3--|


--------------------------|--------------------------|
--------------------------|--------------------------|
-----4--4--4--4--4--4--4--|-----4--4--4-----4--4--4--|
--4--5--5--5--5--5--5--5--|--4--5--5--5--4--5--5--5--|
--4--5--5--5--5--5--5--5--|--4--5--5--5--4--5--5--5--|
--2--3--3--3--3--3--3--3--|--2--3--3--3--2--3--3--3--|


-------------------------------|
-------------------------------|
-----12--12--12--12--12--12----|
-----12--12--12--12--12--12----|
-----10--10--10--10--10--10----|
-------------------------------|



Chorus Part 1 (Plucking) x2
----------------------------------|----------------------------------|
----------------------------------|----------------------------------|
--11------11------11------11------|--12------12------12------12------|
------12------12------12------12--|------12------12------12------12--|
----------------------------------|----------------------------------|
----------------------------------|----------------------------------|


----------------------------------|--------------------------|
----------------------------------|--------------------------|
--14------14------14------14------|--9-----7-----6-----7-----|
------12------12------12------12--|-----7-----7-----7-----7--|
----------------------------------|--------------------------|
----------------------------------|--------------------------|


Chorus Part 2 (Plucking) x2
---------------------------------|---------------------------------|
--12----------12----------12-----|--15----------15----------15-----|
------12----------12----------0--|------14----------14----------0--|
----------12----------12---------|----------12----------12---------|
---------------------------------|---------------------------------|
---------------------------------|---------------------------------|


--------------------------|---------------------------------|
--------------------------|--10----------10----------10-----|
--9-----7-----6-----7-----|------11----------11----------0--|
-----7-----7-----7-----7--|----------12----------12---------|
--------------------------|---------------------------------|
--------------------------|---------------------------------|


Bridge (Plucking) x2
----------------------------------|----------------------------------|
----------------------------------|----------------------------------|
--11------11------11------11------|--12------12------12------12------|
------12------12------12------12--|------12------12------12------12--|
----------------------------------|----------------------------------|
----------------------------------|----------------------------------|


----------------------------------|--------------------------|
----------------------------------|--------------------------|
--14------14------14------14------|--9-----7-----6-----7-----|
------12------12------12------12--|-----7-----7-----7-----7--|
----------------------------------|--------------------------|
----------------------------------|--------------------------|


Verse 2 Part 1 (Strumming-Palm mute)
--------------------------|--------------------------|
--------------------------|--------------------------|
--7--7--7--7--7--7--7--7--|--7--7--7--7--7--7--7--7--|
--7--7--7--7--7--7--7--7--|--7--7--7--7--7--7--7--7--|
--5--5--5--5--5--5--5--5--|--4--4--4--4--4--4--4--4--|
--------------------------|--------------------------|


--------------------------|--------------------------|
--4--4--4--4--4--4--4--4--|--4--4--4--4--4--4--4--4--|
--5--5--5--5--5--5--5--5--|--5--5--5--5--5--5--5--5--|
--5--5--5--5--5--5--5--5--|--5--5--5--5--5--5--5--5--|
--3--3--3--3--3--3--3--3--|--3--3--3--3--3--3--3--3--|


Verse 2 Part 2 (Strumming-Palm mute)
--------------------------|--------------------------|
--------------------------|--------------------------|
--7--7--7--7--7--7--7--7--|--7--7--7--7--7--7--7--7--|
--7--7--7--7--7--7--7--7--|--7--7--7--7--7--7--7--7--|
--5--5--5--5--5--5--5--5--|--4--4--4--4--4--4--4--4--|
--------------------------|--------------------------|


(No palm mute here)
---------------------|--------------------|
---------------------|--------------------|
--4------------------|---------------4x---|
--5------------------|---------------5x---|
--5------------------|---------------5x---|
--3------------------|---------------3x---|


Verse 2 Part 3 (Strumming-Palm mute) x2
--------------------------|--------------------------|
--------------------------|--------------------------|
--7--7--7--7--7--7--7--7--|--7--7--7--7--7--7--7--7--|
--7--7--7--7--7--7--7--7--|--7--7--7--7--7--7--7--7--|
--5--5--5--5--5--5--5--5--|--4--4--4--4--4--4--4--4--|
--------------------------|--------------------------|


--------------------------|--------------------------|
--------------------------|--------------------------|
--4--4--4--4--4--4--4--4--|--4--4--4--4--4--4--4--4--|
--5--5--5--5--5--5--5--5--|--5--5--5--5--5--5--5--5--|
--5--5--5--5--5--5--5--5--|--5--5--5--5--5--5--5--5--|
--3--3--3--3--3--3--3--3--|--3--3--3--3--3--3--3--3--|


Pre chorus (Strumming)
----------------------|
--3----3----3----3----|
--4----4----4----4----|
--4----4----4----4----|
--2----2----2----2----|


----------------------|----------------------|----------------------|
----------------------|--2----2----2----2----|----------------------|
--11------9------7----|--2----2----2----2----|--11------9------7----|
--11------9------7----|--2----2----2----2----|--11------9------7----|
---9------7------5----|--0----0----0----0----|---9------7------5----|
----------------------|----------------------|----------------------|


----------------------|---------------------|----------------------|
----------------------|---------------------|----------------------|
--4----4----4----4----|--9------7------6----|--4----4----4----4----|
--5----5----5----5----|--9------7------6----|--5----5----5----5----|
--5----5----5----5----|--7------5------4----|--5----5----5----5----|
--3----3----3----3----|---------------------|--3----3----3----3----|


---------------------|----------------------|----------------------|
--3------------------|--3----3----3----3----|----------------------|
--4------6------7----|--4----4----4----4----|--11------9------7----|
--4------6------7----|--4----4----4----4----|--11------9------7----|
--2------4------5----|--2----2----2----2----|---9------7------5----|
---------------------|----------------------|----------------------|


----------------------|----------------------|--------------------------|
--2----2----2----2----|----------------------|--------------------------|
--2----2----2----2----|--11------9------7----|-----4--4--4--4--4--4--4--|
--2----2----2----2----|--11------9------7----|--4--5--5--5--5--5--5--5--|
--0----0----0----0----|---9------7------5----|--4--5--5--5--5--5--5--5--|
----------------------|----------------------|--2--3--3--3--3--3--3--3--|


--------------------------|--------------------------|
--------------------------|--------------------------|
-----4--4--4--4--4--4--4--|-----4--4--4-----4--4--4--|
--4--5--5--5--5--5--5--5--|--4--5--5--5--4--5--5--5--|
--4--5--5--5--5--5--5--5--|--4--5--5--5--4--5--5--5--|
--2--3--3--3--3--3--3--3--|--2--3--3--3--2--3--3--3--|


-------------------------------|
-------------------------------|
-----12--12--12--12--12--12----|
-----12--12--12--12--12--12----|
-----10--10--10--10--10--10----|
-------------------------------|


Chorus Part 1 (Plucking) x2
----------------------------------|----------------------------------|
----------------------------------|----------------------------------|
--11------11------11------11------|--12------12------12------12------|
------12------12------12------12--|------12------12------12------12--|
----------------------------------|----------------------------------|
----------------------------------|----------------------------------|


----------------------------------|--------------------------|
----------------------------------|--------------------------|
--14------14------14------14------|--9-----7-----6-----7-----|
------12------12------12------12--|-----7-----7-----7-----7--|
----------------------------------|--------------------------|
----------------------------------|--------------------------|


Chorus Part 2 (Plucking) x2
---------------------------------|---------------------------------|
--12----------12----------12-----|--15----------15----------15-----|
------12----------12----------0--|------14----------14----------0--|
----------12----------12---------|----------12----------12---------|
---------------------------------|---------------------------------|
---------------------------------|---------------------------------|


--------------------------|---------------------------------|
--------------------------|--10----------10----------10-----|
--9-----7-----6-----7-----|------11----------11----------0--|
-----7-----7-----7-----7--|----------12----------12---------|
--------------------------|---------------------------------|
--------------------------|---------------------------------|



Ad. Lib. (Plucking) x2
----------------------------------|
----------------------------------|
--11------11------12------14------|
------12------12------12------12--|
----------------------------------|
----------------------------------|

----------------------------------|----------------------------------|
----------------------------------|----------------------------------|
--12------14------12------11------|--11------11------12------11------|
------12------12------12------12--|------12------12------12------12--|
----------------------------------|----------------------------------|
----------------------------------|----------------------------------|


--------------------------|
--------------------------|
--9-----7-----6-----7-----|
-----7-----7-----7-----7/-|
--------------------------|
--------------------------|



Outro Part 1 (Plucking) x3
----------------------------------|----------------------------------|
----------------------------------|----------------------------------|
--11------11------11------11------|--12------12------12------12------|
------12------12------12------12--|------12------12------12------12--|
----------------------------------|----------------------------------|
----------------------------------|----------------------------------|


----------------------------------|--------------------------|
----------------------------------|--------------------------|
--14------14------14------14------|--9-----7-----6-----7-----|
------12------12------12------12--|-----7-----7-----7-----7--|
----------------------------------|--------------------------|
----------------------------------|--------------------------|


Outro Part 2 (Plucking)
----------------------------------|----------------------------------|
----------------------------------|----------------------------------|
--11------11------11------11------|--12------12------12------12------|
------12------12------12------12--|------12------12------12------12--|
----------------------------------|----------------------------------|
----------------------------------|----------------------------------|


----------------------------------|
----------------------------------|
--14------14------14------14------|
------12------12------12------12--|
----------------------------------|
----------------------------------|


---------------------|
-------7----5--------|
--9----7----6--------|
--7----7----7--------|
-------0----7--------|
---------------------|


Legend:
h-hammer on
p-pull off
/-slide
x-mute
Tap to rate this tab
 
# A B C D E F G H I J K L M N O P Q R S T U V W X Y Z