Song name
# A B C D E F G H I J K L M N O P Q R S T U V W X Y Z

Killers - Romeo And Juliet tab

CAPO ON 7TH FRET

 
 D               A       G
-2---------2-------------x--------------------|
-3-----3-----3---2-------0---------0---2h3-5--|
-2---2---------2---2-----0-----0-----0--------|
-0-0-----0-----------2-0-0-0-0---0------------|
-------------------------2--------------------|
-------------------------x--------------------|

 D               A      G               A
-2---------2-------------x-------------0------|
-3-----3-----3---2-------0---------0-----2----|
-2-------------2---2-----0-----0-----0-----2--|
-0-0-0---0-----------2-0-0-0-0---0-----------2|
-------------------------2--------------------|
-------------------------x--------------------|

 
 D               A       G
-2---------2-------------x--------------------|
-3-----3-----3---2-------0---------0---2h3-5--|
-2---2---------2---2-----0-----0-----0--------|
-0-0-----0-----------2-0-0-0-0---0------------|
-------------------------2--------------------|
-------------------------x--------------------|

 D               A      G               A      D
-2---------2-------------x--------------0------2|
-3-----3-----3---2-------0---------0----2------3|
-2-------------2---2-----0-----0-----0--2------2|
-0-0-0---0-----------2-0-0-0-0---0------2------0|
-------------------------2--------------0-------|
-------------------------x----------------------|


Tap to rate this tab
 
# A B C D E F G H I J K L M N O P Q R S T U V W X Y Z