Song name
# A B C D E F G H I J K L M N O P Q R S T U V W X Y Z

Killers - A Dustland Fairytale tab

This is my first tab so hope you can read it without any problems!

This is the guitar outro solo to A Dustland Fairytale by The Killers. In the album
version the guitar fades out quickly but when played live, Dave Keuning usually plays an
extended outro to the song which I've worked out and tabbed out for you. Hope its good, 
any feedback will be most welcome :)
The part alternates through different inversions of the following broken chords:
D, A, G, F#m, Bm

Tuning: Standard (E A D G B e)

     D                                  A              G
        F#m
E----------------------------------------------|---------------------------------------------|
B---3---------3---------3---------2------------|-0----------0----------0---------------------|
G--------2---------2---------2---------2-------|------0----------0----------0----2-----------|
D-----4----4----4----4----4----4----2----2-----|---0-----0----0-----0----0----0----- --4-----|
A----------------------------------------------|------------------------------------4-----4--|
E----------------------------------------------|---------------------------------------------|

     Bm                                A             D
  A

E-------------------------------------------|-------------------------------0---------|
B-------------------------------------------|------------------------------------2----|
G---------------------------------2---------|-2---------2---------2-----------2----2--|
D---4----0----4----0----4----0----------2---|---0--4--0---0--4--0---0--4--0-----------|
A------2----2----2----2----2----2----4----4-|-----------------------------------------|
E-------------------------------------------|-----------------------------------------|

Bm                                     A             Bm                             A

E--------------------------------0--------|------------------------------0--------|
B---3---------3---------3-------------2---|-3---------3---------3-------------2---|
G--------4---------4---------4-----2----2-|------4---------4---------4-----2----2-|
D-----4----4----4----4----4----4----------|---4----4----4----4----4----4----------|
A-----------------------------------------|---------------------------------------|
E-----------------------------------------|---------------------------------------|

Bm                                      A                                  D

E---2---------2---------2--------|-5----0----5----0----5----0-----|------10-------|
B--------3---------3---------3---|----2----2----2----2----2----2--|------10-------|
G-----4----4----4----4----4----4-|--------------------------------|------11-------|
D--------------------------------|--------------------------------|----12 OR 0*---|
A--------------------------------|--------------------------------|---------------|
E--------------------------------|--------------------------------|---------------|

* The bass note of the final D major chord can be played at a different octave, it is up
to you to choose which sounds better/ is easier for you
Tap to rate this tab
# A B C D E F G H I J K L M N O P Q R S T U V W X Y Z