Song name
# A B C D E F G H I J K L M N O P Q R S T U V W X Y Z

Killers - Smile Like You Mean It tab

-------------------------------------------------------------------------------
			     Smile Like You mean It  The Killers
-------------------------------------------------------------------------------
Tabbed by: Wilfridberry
Email: wilf@toufol.org.uk

Tuning: Half-step Down: Eb Ab Db Gb Bb Eb

NOTE: There are two electric guitar parts in this song, and a brief acoustic 
guitar part, I will tab them all. All tabs will be annotated with note length 
- 'S' means semiquaver, 'Q' means quaver, 'C' means crotchet, 'DC' means 
dotted crotchet, 'M' means minim and 'SB' means semi breathe. Any note value 
with an 'R' after means rest for that length - QR means quaver rest for 
example. Putting 'D' before a value means it is dotted, eg. DC means dotted 
crotchet. Dotted notes go for 1 and a half times their normal length, so a 
dotted crotched would last for 1.5 instead of 1 beat.  


INTRO

The song begins halfway through the first bar, with just guitar 1 fading in 
slowly for the first four and a half bars (the song begins on beat 3, so you 
start halfway through bar one).

Guitar 1:

With slight distortion:

|-----------|-----------------|----------------------|-----------------|
|-----------|-----------------|----------------------|-----------------|
|-----------|-----------------|----------------------|-----------------|
|----9-9----|-----------------|----------------9-9---|-----------------|
|-10------7-|-7-7-7-7-7-7-7-7-|-10-10-10-10-10-----7-|-7-7-7-7-7-7-7-7-|
|-----------|-----------------|----------------------|-----------------|
  Q  Q Q  Q   Q Q Q Q Q Q Q Q   Q  Q  Q  Q  Q  Q Q Q   Q Q Q Q Q Q Q Q

|----------------------|-----------------|----------------------|-----------------|
|----------------------|-----------------|----------------------|-----------------|
|----------------------|-----------------|----------------------|-----------------|
|----------------9-9---|-----------------|----------------9-9---|-----------------|
|-10-10-10-10-10-----7-|-7-7-7-7-7-7-7-7-|-10-10-10-10-10-----7-|-7-7-7-7-7-7-7\--|
|----------------------|-----------------|----------------------|-----------------|

  Q  Q  Q  Q  Q  Q Q Q   Q Q Q Q Q Q Q Q   Q  Q  Q  Q  Q  Q Q Q   Q Q Q Q Q Q C

With slow flanger:

|-3---3-3-3-3-3-0-|--0-0---0-0-0---|-0---0---0-0-0-0-|--0-0---0---0-0-|
|-3---3-3-3-3-3-1-|--1-1---1-1-1---|-0---0---0-0-0-0-|--0-0---0---0-0-|
|-0---0-0-0-0-0-2-|--2-2---2-2-2---|-0---0---0-0-0-0-|--0-0---0---0-0-|
|-0---0-0-0-0-0-2-|--2-2---2-2-2---|-2---2---2-2-2-2-|--2-2---2---2---|
|-x---x-x-x-x-x-0-|--0-0---0-0-0---|-2---2---2-2-2-2-|--2-2---2---2---|
|-3---3-3-3-3-3---|----------------|-0---0---0-0-0-0-|--0-0---0---0---|
  C   Q Q Q Q Q C    Q C   Q Q C     C   C   Q Q Q C    Q C   C   Q Q


|-3---3-3-3-3-3-0-|--0-0---0-0-0---|-0---0---0-0-0-0-|--0-0---0-0-0-0-|
|-3---3-3-3-3-3-1-|--1-1---1-1-1---|-0---0---0-0-0-0-|--0-0---0-0-0-0-|
|-0---0-0-0-0-0-2-|--2-2---2-2-2---|-0---0---0-0-0-0-|--0-0---0-0-0-0-|
|-0---0-0-0-0-0-2-|--2-2---2-2-2---|-2---2---2-2-2-2-|--2-2---2-2-2-2-|
|-x---x-x-x-x-x-0-|--0-0---0-0-0---|-2---2---2-2-2-2-|--2-2---2-2-2-2-|
|-3---3-3-3-3-3---|----------------|-0---0---0-0-0-0-|--0-0---0-0-0-0-|
  C   Q Q Q Q Q C    Q C   Q Q C     C   C   Q Q Q C    Q C   Q Q Q Q

(Flanger off)

FIRST VERSE:

The verse plays an eight bar riff, then plays the chords from the intro. Only 
guitar 1 is used.

Guitar 1:

With slapback delay:

|-0-0-0-0-0-0-0-0-|-0-0-0-0-0-0-0--0-|-0-0-0-0-0-0-0-0-|-0-0-0-0-0-0-0--0-|
|-5-5-5-5-8-5-5-8-|-5-5-8-5-8-5-10/12|-5-5-5-5-8-5-5-8-|-5-5-8-5-8-5-10/12|
|-----------------|------------------|-----------------|------------------|
|-----------------|------------------|-----------------|------------------|
|-----------------|------------------|-----------------|------------------|
|-----------------|------------------|-----------------|------------------|
  Q Q Q Q Q Q Q Q   Q Q Q Q Q Q  Q/Q   Q Q Q Q Q Q Q Q   Q Q Q Q Q Q  Q/Q


|-0-0-0-0-0-0-0-0-|-0-0-0-0-0-0-0--0-|-0-0-0-0-0-0-0-0-|-0-0-0-0-0--------|
|-5-5-5-5-8-5-5-8-|-5-5-8-5-8-5-10/12|-5-5-5-5-8-5-5-8-|-5-5-8-5-0--------|
|-----------------|------------------|-----------------|-----------0----0-|
|-----------------|------------------|-----------------|-----------0----0-|
|-----------------|------------------|-----------------|-----------0----0-|
|-----------------|------------------|-----------------|-----------0----0-|
  Q Q Q Q Q Q Q Q   Q Q Q Q Q Q  Q/Q   Q Q Q Q Q Q Q Q   Q Q Q Q Q Q QR Q

(Slapback delay off)

With slow flanger:

|-3---3-3-3-3-3-0-|--0-0---0-0-0---|-0---0---0-0-0-0-|--0-0---0---0-0-|
|-3---3-3-3-3-3-1-|--1-1---1-1-1---|-0---0---0-0-0-0-|--0-0---0---0-0-|
|-0---0-0-0-0-0-2-|--2-2---2-2-2---|-0---0---0-0-0-0-|--0-0---0---0-0-|
|-0---0-0-0-0-0-2-|--2-2---2-2-2---|-2---2---2-2-2-2-|--2-2---2---2---|
|-x---x-x-x-x-x-0-|--0-0---0-0-0---|-2---2---2-2-2-2-|--2-2---2---2---|
|-3---3-3-3-3-3---|----------------|-0---0---0-0-0-0-|--0-0---0---0---|
  C   Q Q Q Q Q C    Q C   Q Q C     C   C   Q Q Q C    Q C   C   Q Q


|-3---3-3-3-3-3-0-|--0-0---0-0-0---|-0---0---0-0-0-0-|--0-0---0-0-0-0-|
|-3---3-3-3-3-3-1-|--1-1---1-1-1---|-0---0---0-0-0-0-|--0-0---0-0-0-0-|
|-0---0-0-0-0-0-2-|--2-2---2-2-2---|-0---0---0-0-0-0-|--0-0---0-0-0-0-|
|-0---0-0-0-0-0-2-|--2-2---2-2-2---|-2---2---2-2-2-2-|--2-2---2-2-2-2-|
|-x---x-x-x-x-x-0-|--0-0---0-0-0---|-2---2---2-2-2-2-|--2-2---2-2-2-2-|
|-3---3-3-3-3-3---|----------------|-0---0---0-0-0-0-|--0-0---0-0-0-0-|
  C   Q Q Q Q Q C    Q C   Q Q C     C   C   Q Q Q C    Q C   Q Q Q Q

(Flanger off)

FIRST CHORUS

The chorus is a four bar pattern repeated twice, with only guitar 1.

NOTE: When 'T-------------------|' is written above the tab means to 'palm 
mute' just the sixth string with your thumb for all notes underneath the 
dashed line coming out of the 'T' then to stop and the line.

                                                    T-------------------|

|-3---3---3-3---3-|---3-3---3-3-3-3-|-3---3---3-3-3-2-|---2-2---2-2-2-2-|
|-3---3---3-3---1-|---1-1---1-1-1-1-|-3---3---3-3-3-3-|---3-3---3-3-3-3-|
|-0---0---0-0---0-|---0-0---0-0-0-0-|-0---0---0-0-0-2-|---2-2---2-2-2-2-|
|-0---0---0-0---x-|---x-x---x-x-x-x-|-0---0---0-0-0-0-|---0-0---0-0-0-0-|
|-2---2---2-2---2-|---3-3---3-3-3-3-|-x---x---x-x-x-x-|---x-x---x-x-x-x-|
|-----------------|-----------------|-3---3---3-3-3-2-|---2-2---2-2-2-2-|

  C   C   Q C   C     Q C   Q Q Q Q   C   C   Q Q Q C     Q C   Q Q Q Q


                                                    T-------------------|

|-3---3---3-3---3-|---3-3---3-3-3-3-|-3---3---3-3-3-2-|---2-2---2-2-2-2-|
|-3---3---3-3---1-|---1-1---1-1-1-1-|-3---3---3-3-3-3-|---3-3---3-3-3-3-|
|-0---0---0-0---0-|---0-0---0-0-0-0-|-0---0---0-0-0-2-|---2-2---2-2-2-2-|
|-0---0---0-0---x-|---x-x---x-x-x-x-|-0---0---0-0-0-0-|---0-0---0-0-0-0-|
|-2---2---2-2---2-|---3-3---3-3-3-3-|-x---x---x-x-x-x-|---x-x---x-x-x-x-|
|-----------------|-----------------|-3---3---3-3-3-2-|---2-2---2-2-2-2-|

  C   C   Q C   C     Q C   Q Q Q Q   C   C   Q Q Q C     Q C   Q Q Q Q


SECOND VERSE

The second verse is similar to verse one, except guitar 2 comes in on the 
final bar, and guitar one stops playing the bar before that.

Guitar 1:

With slapback delay:

|-0-0-0-0-0-0-0-0-|-0-0-0-0-0-0-0--0-|-0-0-0-0-0-0-0-0-|-0-0-0-0-0-0-0--0-|
|-5-5-5-5-8-5-5-8-|-5-5-8-5-8-5-10/12|-5-5-5-5-8-5-5-8-|-5-5-8-5-8-5-10/12|
|-----------------|------------------|-----------------|------------------|
|-----------------|------------------|-----------------|------------------|
|-----------------|------------------|-----------------|------------------|
|-----------------|------------------|-----------------|------------------|
  Q Q Q Q Q Q Q Q   Q Q Q Q Q Q  Q/Q   Q Q Q Q Q Q Q Q   Q Q Q Q Q Q  Q/Q


|-0-0-0-0-0-0-0-0-|-0-0-0-0-0-0-0--0-|-0-0-0-0-0-0-0-0-|-0-0-0-0-0--------|
|-5-5-5-5-8-5-5-8-|-5-5-8-5-8-5-10/12|-5-5-5-5-8-5-5-8-|-5-5-8-5-0--------|
|-----------------|------------------|-----------------|-----------0----0-|
|-----------------|------------------|-----------------|-----------0----0-|
|-----------------|------------------|-----------------|-----------0----0-|
|-----------------|------------------|-----------------|-----------0----0-|
  Q Q Q Q Q Q Q Q   Q Q Q Q Q Q  Q/Q   Q Q Q Q Q Q Q Q   Q Q Q Q Q Q QR Q

(Slapback delay off)

With slow flanger:

|-3---3-3-3-3-3-0-|--0-0---0-0-0---|-0---0---0-0-0-0-|--0-0---0---0-0-|
|-3---3-3-3-3-3-1-|--1-1---1-1-1---|-0---0---0-0-0-0-|--0-0---0---0-0-|
|-0---0-0-0-0-0-2-|--2-2---2-2-2---|-0---0---0-0-0-0-|--0-0---0---0-0-|
|-0---0-0-0-0-0-2-|--2-2---2-2-2---|-2---2---2-2-2-2-|--2-2---2---2---|
|-x---x-x-x-x-x-0-|--0-0---0-0-0---|-2---2---2-2-2-2-|--2-2---2---2---|
|-3---3-3-3-3-3---|----------------|-0---0---0-0-0-0-|--0-0---0---0---|
  C   Q Q Q Q Q C    Q C   Q Q C     C   C   Q Q Q C    Q C   C   Q Q


|-3---3-3-3-3-3-0-|--0-0---0-0-0---|-0---0-0---0-0-0-|----------------|
|-3---3-3-3-3-3-1-|--1-1---1-1-1---|-0---0-0---0-0-0-|----------------|
|-0---0-0-0-0-0-2-|--2-2---2-2-2---|-0---0-0---0-0-0-|----------------|
|-0---0-0-0-0-0-2-|--2-2---2-2-2---|-2---2-2---2-2-2-|----------------|
|-x---x-x-x-x-x-0-|--0-0---0-0-0---|-2---2-2---2-2-2-|----------------|
|-3---3-3-3-3-3---|----------------|-0---0-0---0-0-0-|----------------|
  C   Q Q Q Q Q C    Q C   Q Q C     C   Q C   Q Q Q    

(Flanger off)

Guitar 2: (come in on final bar)

With distortion and heavy reverb:

|-----------------|-----------------|-----------------|-----------------|
|-----------------|-----------------|-----------------|-----------------|
|-----------------|-----------------|-----------------|-----------------|
|-----------------|-----------------|-----------------|-----------------|
|-----------------|-----------------|-----------------|-----------------|
|-----------------|-----------------|-----------------|-----------------|

|-----------------|-----------------|-----------------|-----------------|
|-----------------|-----------------|-----------------|-----------------|
|-----------------|-----------------|-----------------|-----------------|
|-----------------|-----------------|-----------------|-----------------|
|-----------------|-----------------|-----------------|-----------------|
|-----------------|-----------------|-----------------|-----------------|

|-----------------|-----------------|-----------------|-----------------|
|-----------------|-----------------|-----------------|-----------------|
|-----------------|-----------------|-----------------|-----------------|
|-----------------|-----------------|-----------------|-----------------|
|-----------------|-----------------|-----------------|-----------------|
|-----------------|-----------------|-----------------|-----------------|

                                        Bend up 1 tone----------------| 1.5------------|

|-----------------|-----------------|-----------------|--------------------------------|
|-----------------|-----------------|-----------------|-10--10--10--10--10--10--10--10-|
|-----------------|-----------------|-----------------|-12b-12b-12b-12b-12b-12b-12b-12b|
|-----------------|-----------------|-----------------|--------------------------------|
|-----------------|-----------------|-----------------|--------------------------------|
|-----------------|-----------------|-----------------|--------------------------------|

                                                         Q   Q   Q   Q   Q   Q   Q   Q

SECOND CHORUS

All three guitars are in this, guitar 1 plays the same part as the first 
chorus, guitar two plays a bent note following on from last bar and holds it 
for four beats (two semi breathes) then rests for the rest of the chorus, and 
guitar 3 (acoustic) plays backing chords.

Guitar 1:

                                                    T-------------------|

|-3---3---3-3---3-|---3-3---3-3-3-3-|-3---3---3-3-3-2-|---2-2---2-2-2-2-|
|-3---3---3-3---1-|---1-1---1-1-1-1-|-3---3---3-3-3-3-|---3-3---3-3-3-3-|
|-0---0---0-0---0-|---0-0---0-0-0-0-|-0---0---0-0-0-2-|---2-2---2-2-2-2-|
|-0---0---0-0---x-|---x-x---x-x-x-x-|-0---0---0-0-0-0-|---0-0---0-0-0-0-|
|-2---2---2-2---2-|---3-3---3-3-3-3-|-x---x---x-x-x-x-|---x-x---x-x-x-x-|
|-----------------|-----------------|-3---3---3-3-3-2-|---2-2---2-2-2-2-|

  C   C   Q C   C     Q C   Q Q Q Q   C   C   Q Q Q C     Q C   Q Q Q Q


                                                    T-------------------|

|-3---3---3-3---3-|---3-3---3-3-3-3-|-3---3---3-3-3-2-|---2-2---2-2-2-2-|
|-3---3---3-3---1-|---1-1---1-1-1-1-|-3---3---3-3-3-3-|---3-3---3-3-3-3-|
|-0---0---0-0---0-|---0-0---0-0-0-0-|-0---0---0-0-0-2-|---2-2---2-2-2-2-|
|-0---0---0-0---x-|---x-x---x-x-x-x-|-0---0---0-0-0-0-|---0-0---0-0-0-0-|
|-2---2---2-2---2-|---3-3---3-3-3-3-|-x---x---x-x-x-x-|---x-x---x-x-x-x-|
|-----------------|-----------------|-3---3---3-3-3-2-|---2-2---2-2-2-2-|

  C   C   Q C   C     Q C   Q Q Q Q   C   C   Q Q Q C     Q C   Q Q Q Q

Guitar 2:

Bend 1.5 tones----------------------| (DO NOT RETURN, KEEP BENT UNTIL REST)
|-----------------|-----------------|-----------------|-----------------|
|-10--------------|-----------------|-----------------|-----------------|
|-12b-------------|-----------------|-----------------|-----------------|
|-----------------|-----------------|-----------------|-----------------|
|-----------------|-----------------|-----------------|-----------------|
|-----------------|-----------------|-----------------|-----------------|

HOLD NOTES FOR TWO BARS-------------|REST

|-----------------|-----------------|-----------------|-----------------|
|-----------------|-----------------|-----------------|-----------------|
|-----------------|-----------------|-----------------|-----------------|
|-----------------|-----------------|-----------------|-----------------|
|-----------------|-----------------|-----------------|-----------------|
|-----------------|-----------------|-----------------|-----------------|


Guitar 3 (Acoustic)

|-3---3---3-3---3-|-----3---3-3-3---|-3---3---3-3-3-2-|-----2-----------|
|-3---3---3-3---1-|-----1---1-1-1---|-3---3---3-3-3-3-|-----3-----------|
|-0---0---0-0---0-|-----0---0-0-0---|-0---3---3-3-3-2-|-----2-----------|
|-x---x---x-x---x-|-----x---x-x-x---|-0---0---0-0-0-0-|-----0-----------|
|-2---2---2-2---3-|-----3---3-3-3---|-x---x---x-x-x-x-|-----x-----------|
|-x---x---x-x---x-|-----x---x-x-x---|-3---3---3-3-3-2-|-----2-----------|

  C   C   Q C   DC      C   Q Q C     C   C   Q Q Q DC      DM

|-3---3---3-3---3-|-----3---3-3-3---|-3---3---3-3-3-2-|-----2-----------|
|-3---3---3-3---1-|-----1---1-1-1---|-3---3---3-3-3-3-|-----3-----------|
|-0---0---0-0---0-|-----0---0-0-0---|-0---3---3-3-3-2-|-----2-----------|
|-x---x---x-x---x-|-----x---x-x-x---|-0---0---0-0-0-0-|-----0-----------|
|-2---2---2-2---3-|-----3---3-3-3---|-x---x---x-x-x-x-|-----x-----------|
|-x---x---x-x---x-|-----x---x-x-x---|-3---3---3-3-3-2-|-----2-----------|

  C   C   Q C   DC      C   Q Q C     C   C   Q Q Q DC      DM


GUITAR SOLO AND BACKING CHORDS

Only guitars 1 and 2 are in the solo, 1 provides backing chords and 2 plays 
the solo.

Guitar 1:

|-2---2---2-2-2-0-|---0-0---0-0-0---|-x---x-x---x-x-x-|---x-x---x-x-x-x-|
|-3---3---3-3-3-0-|---0-0---0-0-0---|-1---1-1---1-1-1-|---1-1---1-1-1-1-|
|-2---2---2-2-2-0-|---0-0---0-0-0---|-0---0-0---0-0-0-|---0-0---0-0-0-0-|
|-0---0---0-0-0-2-|---2-2---2-2-2---|-2---2-2---2-2-2-|---2-2---2-2-2-2-|
|-x---x---x-x-x-2-|---2-2---2-2-2---|-3---3-3---3-3-3-|---3-3---3-3-3-3-|
|-x---x---x-x-x-0-|---0-0---0-0-0---|-x---x-x---x-x-x-|---x-x---x-x-x-x-|

  C   C   Q Q Q C     Q C   Q Q C     C   Q C   Q Q C     Q C   Q Q Q Q

|-2---2---2-2-2-0-|---0-0---0-0-0---|-x---x-x---x-x-x-|---x-x---x-x-x-x-|
|-3---3---3-3-3-0-|---0-0---0-0-0---|-1---1-1---1-1-1-|---1-1---1-1-1-1-|
|-2---2---2-2-2-0-|---0-0---0-0-0---|-0---0-0---0-0-0-|---0-0---0-0-0-0-|
|-0---0---0-0-0-2-|---2-2---2-2-2---|-2---2-2---2-2-2-|---2-2---2-2-2-2-|
|-x---x---x-x-x-2-|---2-2---2-2-2---|-3---3-3---3-3-3-|---3-3---3-3-3-3-|
|-x---x---x-x-x-0-|---0-0---0-0-0---|-x---x-x---x-x-x-|---x-x---x-x-x-x-|

  C   C   Q Q Q C     Q C   Q Q C     C   Q C   Q Q C     Q C   Q Q Q Q


Guitar 2:

|-14----14----14----14----|-15----15----15----15----|
|----15----15----15----15-|----15----15----15----\12|
|-------------------------|-------------------------|
|-------------------------|-------------------------|
|-------------------------|-------------------------|
|-------------------------|-------------------------|

  Q  Q  Q  Q  Q  Q  Q  Q    Q  Q  Q  Q  Q  Q  Q  \Q


|----------------------------|-------------------------|
|-13p12----12----13----13----|-15----15----15----15----|
|-------12----12----12----12-|----12----12----12----12-|
|----------------------------|-------------------------|
|----------------------------|-------------------------|
|----------------------------|-------------------------|

 SQpSQ  Q  Q  Q  Q  Q  Q  Q    Q  Q  Q  Q  Q  Q  Q  Q


|----------------------------|-------------------------|
|-15----15-------------------|-------13-12-------12-15-|
|----14-14-14----12----------|----12----------12-------|
|----------------------14----|-------------------------|
|----------------------------|-------------------------|
|----------------------------|-------------------------|

  Q  Q  Q  C      C     C          Q  Q  C    Q   Q  Q


BEND UP 1 TONE---------------------------------|

|-------15-------15--------|-15-------15--------------|
|-15b------15b------15b----|----15b------15br--13-12--|
|--------------------------|--------------------------|
|--------------------------|--------------------------|
|--------------------------|--------------------------|
|--------------------------|--------------------------|

   C    Q   C    Q  C        Q  C      Q  C    Q  Q


BRIDGE

A bridge leading up to the final chorus, this features guitars 1, 2 and 3, 
guitar 3 comes in on the 3rd bar before the end.

Guitar 1:

|-0---0---0-0-0-0-|-0-0-0-0-0-0-0-0-|-0---0-0-0-0-0-0-|---0-0-0-0-0-0-0-|
|-1---1---1-1-1-1-|-1-1-1-1-1-1-1-1-|-0---0-0-0-0-1-1-|---1-1-1-1-0-0-0-|
|-2---2---2-2-2-2-|-2-2-2-2-2-2-2-2-|-0---0-0-0-0-0-0-|---0-0-0-0-0-0-0-|
|-2---2---2-2-2-2-|-2-2-2-2-2-2-2-2-|-2---2-2-2-2-2-2-|---2-2-2-2-2-2-2-|
|-0---0---0-0-0-0-|-0-0-0-0-0-0-0-0-|-2---2-2-2-2-2-2-|---2-2-2-2-2-2-2-|
|-x---x---x-x-x-x-|-x-x-x-x-x-x-x-x-|-0---0-0-0-0-0-0-|---0-0-0-0-0-0-0-|

  C   C   Q Q Q Q   Q Q Q Q Q Q Q Q   C   Q Q Q Q Q C     Q Q Q Q Q Q Q


|-0---0---0-0-0-0-|-0-0-0-0-0-0-0-0-|-0---0-0-0-0-0-0-|---0-0-0-0-0-0-0-|
|-1---1---1-1-1-1-|-1-1-1-1-1-1-1-1-|-0---0-0-0-0-1-1-|---1-1-1-1-0-0-0-|
|-2---2---2-2-2-2-|-2-2-2-2-2-2-2-2-|-0---0-0-0-0-0-0-|---0-0-0-0-0-0-0-|
|-2---2---2-2-2-2-|-2-2-2-2-2-2-2-2-|-2---2-2-2-2-2-2-|---2-2-2-2-2-2-2-|
|-0---0---0-0-0-0-|-0-0-0-0-0-0-0-0-|-2---2-2-2-2-2-2-|---2-2-2-2-2-2-2-|
|-x---x---x-x-x-x-|-x-x-x-x-x-x-x-x-|-0---0-0-0-0-0-0-|---0-0-0-0-0-0-0-|

  C   C   Q Q Q Q   Q Q Q Q Q Q Q Q   C   Q Q Q Q Q C     Q Q Q Q Q Q Q


|-0-0-0-0-0-0-0-0-|-0-0-0-0-0-0-0-0-|-0-0-0-0---0-0-0-|-0-0-0-0---0-0-0-|
|-1-1-1-1-1-1-1-1-|-1-1-1-1-1-1-1-1-|-3-3-3-3---3-3-3-|-3-3-3-3---3-3-3-|
|-2-2-2-2-2-2-2-2-|-2-2-2-2-2-2-2-2-|-4-4-4-4---4-4-4-|-4-4-4-4---4-4-4-|
|-2-2-2-2-2-2-2-2-|-2-2-2-2-2-2-2-2-|-4-4-4-4---4-4-4-|-4-4-4-4---4-4-4-|
|-0-0-0-0-0-0-0-0-|-0-0-0-0-0-0-0-0-|-2-2-2-2---2-2-2-|-2-2-2-2---2-2-2-|
|-x-x-x-x-x-x-x-x-|-x-x-x-x-x-x-x-x-|-x-x-x-x---x-x-x-|-x-x-x-x---x-x-x-|

  Q Q Q Q Q Q Q Q   Q Q Q Q Q Q Q Q   Q Q Q C   Q Q Q   Q Q Q C   Q Q Q

|-x---x-x-x-x-x-x-|-x-x-x---x-x-x-x-|-2---2-2-2-2-2-2-|---2-2-2-2---2-2-|
|-1---1-1-1-1-1-1-|-1-1-1---1-1-1-1-|-3---3-3-3-3-3-3-|---3-3-3-3---3-3-|
|-0---0-0-0-0-0-0-|-0-0-0---0-0-0-0-|-2---2-2-2-2-2-2-|---2-2-2-2---2-2-|
|-2---2-2-2-2-2-2-|-2-2-2---2-2-2-2-|-0---0-0-0-0-0-0-|---0-0-0-0---0-0-|
|-3---3-3-3-3-3-3-|-3-3-3---3-3-3-3-|-x---x-x-x-x-x-x-|---x-x-x-x---x-x-|
|-x---x-x-x-x-x-x-|-x-x-x---x-x-x-x-|-x---x-x-x-x-x-x-|---x-x-x-x---x-x-|

  C   Q Q Q Q Q Q   Q Q C   Q Q Q Q   C   Q Q Q Q Q C     Q Q Q C   Q Q

Guitar 2:

|-------------------------|-------------------------|
|-------------------------|-------------------------|
|-14----14-14-14-14-14-14-|-14-14-14-14-14-14-14-14-|
|-------------------------|-------------------------|
|-------------------------|-------------------------|
|-------------------------|-------------------------|

   C     Q  Q  Q  Q  Q  Q    Q  Q  Q  Q  Q  Q  Q  Q

|-------------------------|-------------------------|
|----------------12-12-12-|-13-13-13-13----12-12-12-|
|-12-12-12-12-12-12-12-12-|-12-12-12-12----12-12-12-|
|-------------------------|-------------------------|
|-------------------------|-------------------------|
|-------------------------|-------------------------|

   Q  Q  Q  Q  Q  Q  Q  Q    Q  Q  Q  C     Q  Q  Q

|-------------------------|-------------------------|
|-------------------------|-------------------------|
|-14----14-14-14-14-14-14-|-14-14-14-14-14-14-14-14-|
|-------------------------|-------------------------|
|-------------------------|-------------------------|
|-------------------------|-------------------------|

   C     Q  Q  Q  Q  Q  Q    Q  Q  Q  Q  Q  Q  Q  Q

|-------------------------|-------------------------|
|----------------12-12-12-|-13-13-13-13----12-12-12-|
|-12-12-12-12-12-12-12-12-|-12-12-12-12----12-12-12-|
|-------------------------|-------------------------|
|-------------------------|-------------------------|
|-------------------------|-------------------------|

   Q  Q  Q  Q  Q  Q  Q  Q    Q  Q  Q  C     Q  Q  Q

|-------------------------|-------------------------|
|-------------------------|-------------------------|
|-14-14-14-14-14-14-14-14-|-14-14-14-14-14-14-14-14-|
|-------------------------|-------------------------|
|-------------------------|-------------------------|
|-------------------------|-------------------------|

   Q  Q  Q  Q  Q  Q  Q  Q    Q  Q  Q  Q  Q  Q  Q  Q

|-------------------------|-------------------------|
|-12-12-12-12-12-12-12-12-|----12-12-12-12-12-12-12-|
|-11-11-11-11-11-11-11-11-|----11-11-11-11-11-11-11-|
|-------------------------|-------------------------|
|-------------------------|-------------------------|
|-------------------------|-------------------------|

  Q  Q  Q  Q  Q  Q  Q  C        Q  Q  Q  Q  Q  C

|-------------------------|-------------------------|
|-13-13-13-13-13-13-13-13-|----13-13-13-13-13-13----|
|-12-12-12-12-12-12-12-12-|----12-12-12-12-12-12----|
|-------------------------|-------------------------|
|-------------------------|-------------------------|
|-------------------------|-------------------------|

   Q  Q  Q  Q  Q  Q  Q  C       Q  Q  Q  Q  Q  C

|-10-10-10-10-10-10-10-10-|----10-10-10-10-10-10----|
|-10-10-10-10-10-10-10-10-|----10-10-10-10-10-10----|
|-------------------------|-------------------------|
|-------------------------|-------------------------|
|-------------------------|-------------------------|
|-------------------------|-------------------------|

   Q  Q  Q  Q  Q  Q  Q  C       Q  Q  Q  Q  Q  C

Guitar 3:

The acoustic waits for 13 bars, then comes in after the last vocal in the 
bridge ('same streets that I did')

|-----------------|-----------------|-----------------|-----------------|
|-----------------|-----------------|-----------------|-----------------|
|-----------------|-----------------|-----------------|-----------------|
|-----------------|-----------------|-----------------|-----------------|
|-----------------|-----------------|-----------------|-----------------|
|-----------------|-----------------|-----------------|-----------------|

|-----------------|-----------------|-----------------|-----------------|
|-----------------|-----------------|-----------------|-----------------|
|-----------------|-----------------|-----------------|-----------------|
|-----------------|-----------------|-----------------|-----------------|
|-----------------|-----------------|-----------------|-----------------|
|-----------------|-----------------|-----------------|-----------------|

|-----------------|-----------------|-----------------|-----------------|
|-----------------|-----------------|-----------------|-----------------|
|-----------------|-----------------|-----------------|-----------------|
|-----------------|-----------------|-----------------|-----------------|
|-----------------|-----------------|-----------------|-----------------|
|-----------------|-----------------|-----------------|-----------------|

|-----------------|---------------2-|-2---2---2-2-2-2-|---2-----2-2-2-2-|
|-----------------|---------------3-|-3---3---3-3-3-3-|---3-----3-3-3-3-|
|-----------------|---------------0-|-2---2---2-2-2-2-|---2-----2-2-2-2-|
|-----------------|---------------0-|-0---0---0-0-0-0-|---0-----0-0-0-0-|
|-----------------|-----------------|-----------------|-----------------|
|-----------------|-----------------|-----------------|-----------------|
                   CR  CR  CR  QR Q   C   C   Q Q Q C     DC    Q Q Q Q

FINAL CHORUS

The final chorus is sixteen bars long, and only uses guitar 1 and 3 (electric 
and acoustic)

Guitar 1:


                                                    T-------------------|

|-3---3---3-3---3-|---3-3---3-3-3-3-|-3---3---3-3-3-2-|---2-2---2-2-2-2-|
|-3---3---3-3---1-|---1-1---1-1-1-1-|-3---3---3-3-3-3-|---3-3---3-3-3-3-|
|-0---0---0-0---0-|---0-0---0-0-0-0-|-0---0---0-0-0-2-|---2-2---2-2-2-2-|
|-0---0---0-0---x-|---x-x---x-x-x-x-|-0---0---0-0-0-0-|---0-0---0-0-0-0-|
|-2---2---2-2---2-|---3-3---3-3-3-3-|-x---x---x-x-x-x-|---x-x---x-x-x-x-|
|-----------------|-----------------|-3---3---3-3-3-2-|---2-2---2-2-2-2-|

  C   C   Q C   C     Q C   Q Q Q Q   C   C   Q Q Q C     Q C   Q Q Q Q


                                                    T-------------------|

|-3---3---3-3---3-|---3-3---3-3-3-3-|-3---3---3-3-3-2-|---2-2---2-2-2-2-|
|-3---3---3-3---1-|---1-1---1-1-1-1-|-3---3---3-3-3-3-|---3-3---3-3-3-3-|
|-0---0---0-0---0-|---0-0---0-0-0-0-|-0---0---0-0-0-2-|---2-2---2-2-2-2-|
|-0---0---0-0---x-|---x-x---x-x-x-x-|-0---0---0-0-0-0-|---0-0---0-0-0-0-|
|-2---2---2-2---2-|---3-3---3-3-3-3-|-x---x---x-x-x-x-|---x-x---x-x-x-x-|
|-----------------|-----------------|-3---3---3-3-3-2-|---2-2---2-2-2-2-|

  C   C   Q C   C     Q C   Q Q Q Q   C   C   Q Q Q C     Q C   Q Q Q Q


                                                    T-------------------|

|-3---3---3-3---3-|---3-3---3-3-3-3-|-3---3---3-3-3-2-|---2-2---2-2-2-2-|
|-3---3---3-3---1-|---1-1---1-1-1-1-|-3---3---3-3-3-3-|---3-3---3-3-3-3-|
|-0---0---0-0---0-|---0-0---0-0-0-0-|-0---0---0-0-0-2-|---2-2---2-2-2-2-|
|-0---0---0-0---x-|---x-x---x-x-x-x-|-0---0---0-0-0-0-|---0-0---0-0-0-0-|
|-2---2---2-2---2-|---3-3---3-3-3-3-|-x---x---x-x-x-x-|---x-x---x-x-x-x-|
|-----------------|-----------------|-3---3---3-3-3-2-|---2-2---2-2-2-2-|

  C   C   Q C   C     Q C   Q Q Q Q   C   C   Q Q Q C     Q C   Q Q Q Q


                                                    T-------------------|

|-3---3---3-3---3-|---3-3---3-3-3-3-|-3---3---3-3-3-2-|---2-2---2-2-2-2-|
|-3---3---3-3---1-|---1-1---1-1-1-1-|-3---3---3-3-3-3-|---3-3---3-3-3-3-|
|-0---0---0-0---0-|---0-0---0-0-0-0-|-0---0---0-0-0-2-|---2-2---2-2-2-2-|
|-0---0---0-0---x-|---x-x---x-x-x-x-|-0---0---0-0-0-0-|---0-0---0-0-0-0-|
|-2---2---2-2---2-|---3-3---3-3-3-3-|-x---x---x-x-x-x-|---x-x---x-x-x-x-|
|-----------------|-----------------|-3---3---3-3-3-2-|---2-2---2-2-2-2-|

  C   C   Q C   C     Q C   Q Q Q Q   C   C   Q Q Q C     Q C   Q Q Q Q

Guitar 3:

|-3---3---3-3---3-|-----3---3-3-3---|-3---3---3-3-3-2-|-----2-----------|
|-3---3---3-3---1-|-----1---1-1-1---|-3---3---3-3-3-3-|-----3-----------|
|-0---0---0-0---0-|-----0---0-0-0---|-0---3---3-3-3-2-|-----2-----------|
|-x---x---x-x---x-|-----x---x-x-x---|-0---0---0-0-0-0-|-----0-----------|
|-2---2---2-2---3-|-----3---3-3-3---|-x---x---x-x-x-x-|-----x-----------|
|-x---x---x-x---x-|-----x---x-x-x---|-3---3---3-3-3-2-|-----2-----------|

  C   C   Q C   DC      C   Q Q C     C   C   Q Q Q DC      DM

|-3---3---3-3---3-|-----3---3-3-3---|-3---3---3-3-3-2-|-----2-----------|
|-3---3---3-3---1-|-----1---1-1-1---|-3---3---3-3-3-3-|-----3-----------|
|-0---0---0-0---0-|-----0---0-0-0---|-0---3---3-3-3-2-|-----2-----------|
|-x---x---x-x---x-|-----x---x-x-x---|-0---0---0-0-0-0-|-----0-----------|
|-2---2---2-2---3-|-----3---3-3-3---|-x---x---x-x-x-x-|-----x-----------|
|-x---x---x-x---x-|-----x---x-x-x---|-3---3---3-3-3-2-|-----2-----------|

  C   C   Q C   DC      C   Q Q C     C   C   Q Q Q DC      DM

|-3---3---3-3---3-|-----3---3-3-3---|-3---3---3-3-3-2-|-----2-----------|
|-3---3---3-3---1-|-----1---1-1-1---|-3---3---3-3-3-3-|-----3-----------|
|-0---0---0-0---0-|-----0---0-0-0---|-0---3---3-3-3-2-|-----2-----------|
|-x---x---x-x---x-|-----x---x-x-x---|-0---0---0-0-0-0-|-----0-----------|
|-2---2---2-2---3-|-----3---3-3-3---|-x---x---x-x-x-x-|-----x-----------|
|-x---x---x-x---x-|-----x---x-x-x---|-3---3---3-3-3-2-|-----2-----------|

  C   C   Q C   DC      C   Q Q C     C   C   Q Q Q DC      DM

|-3---3---3-3---3-|-----3---3-3-3---|-3---3---3-3-3-2-|-----2-----------|
|-3---3---3-3---1-|-----1---1-1-1---|-3---3---3-3-3-3-|-----3-----------|
|-0---0---0-0---0-|-----0---0-0-0---|-0---3---3-3-3-2-|-----2-----------|
|-x---x---x-x---x-|-----x---x-x-x---|-0---0---0-0-0-0-|-----0-----------|
|-2---2---2-2---3-|-----3---3-3-3---|-x---x---x-x-x-x-|-----x-----------|
|-x---x---x-x---x-|-----x---x-x-x---|-3---3---3-3-3-2-|-----2-----------|

  C   C   Q C   DC      C   Q Q C     C   C   Q Q Q DC      DM

OUTRO

Only guitar 1 is used here.

Guitar 1:

|-3---3-3-3-3-3-0-|--0-0---0-0-0---|-0---0---0-0-0-0-|--0-0---0---0-0-|
|-3---3-3-3-3-3-1-|--1-1---1-1-1---|-0---0---0-0-0-0-|--0-0---0---0-0-|
|-0---0-0-0-0-0-2-|--2-2---2-2-2---|-0---0---0-0-0-0-|--0-0---0---0-0-|
|-0---0-0-0-0-0-2-|--2-2---2-2-2---|-2---2---2-2-2-2-|--2-2---2---2---|
|-x---x-x-x-x-x-0-|--0-0---0-0-0---|-2---2---2-2-2-2-|--2-2---2---2---|
|-3---3-3-3-3-3---|----------------|-0---0---0-0-0-0-|--0-0---0---0---|
  C   Q Q Q Q Q C    Q C   Q Q C     C   C   Q Q Q C    Q C   C   Q Q


|-3---3-3-3-3-3-0-|--0-0---0-0-0---|-0---0---0-0-0-0-|--0-0---0---0-0-|
|-3---3-3-3-3-3-1-|--1-1---1-1-1---|-0---0---0-0-0-0-|--0-0---0---0-0-|
|-0---0-0-0-0-0-2-|--2-2---2-2-2---|-0---0---0-0-0-0-|--0-0---0---0-0-|
|-0---0-0-0-0-0-2-|--2-2---2-2-2---|-2---2---2-2-2-2-|--2-2---2---2---|
|-x---x-x-x-x-x-0-|--0-0---0-0-0---|-2---2---2-2-2-2-|--2-2---2---2---|
|-3---3-3-3-3-3---|----------------|-0---0---0-0-0-0-|--0-0---0---0---|
  C   Q Q Q Q Q C    Q C   Q Q C     C   C   Q Q Q C    Q C   C   Q Q


|-3-3-3-----3-3---|-0-0-0-----0-0-0-|-0-0-0-----0-0-0-|-0-0-0-----0-0-0-|
|-3-3-3-----3-3-0-|-1-1-1-----1-1-0-|-0-0-0-----0-0-0-|-0-0-0-----0-0-0-|
|-0-0-0-----0-0-0-|-2-2-2-----2-2-0-|-0-0-0-----0-0-0-|-0-0-0-----0-0-0-|
|-0-0-0-----x-x-0-|-2-2-2-----2-2---|-2-2-2-----2-2-2-|-2-2-2-----2-2-2-|
|-x-x-x-----2-2---|-0-0-0-----0-0---|-2-2-2-----2-2-2-|-2-2-2-----2-2-2-|
|-3-3-3-----------|-----------------|-0-0-0-----0-0-0-|-0-0-0-----0-0-0-|

  Q Q C  QR Q Q Q   Q Q C  QR Q Q Q   Q Q C  QR Q Q Q   Q Q C  QR Q Q Q 


|-3-3-3-----3-3---|-----------------|-----------------|-----------------|
|-3-3-3-----3-3-0-|-1-1-1-----1-1-1-|-0---------------|-----------------|
|-0-0-0-----0-0-0-|-2-2-2-----2-2-2-|-0---------------|-----------------|
|-0-0-0-----x-x-0-|-2-2-2-----2-2-2-|-2---------------|-----------------|
|-x-x-x-----2-2---|-0-0-0-----0-0-0-|-2---------------|-----------------|
|-3-3-3-----------|-----------------|-0---------------|-----------------|

  Q Q C  QR Q Q Q   Q Q C  QR Q Q Q   HOLD FOR TWO BARS 


Well there it is, hope you found this useful - please rate, comment and ask 
if you have a problem or question, thanks!



                 

************************************

| /   slide up
| \   slide down
| h   hammer-on
| p   pull-off
| ~   vibrato
| +   harmonic
| x   Mute note
| b   Bend
| pb  Pre-bend
| br  Bend release
| pbr Pre-bend release
| brb Bend release bend

************************************
Tap to rate this tab
# A B C D E F G H I J K L M N O P Q R S T U V W X Y Z