Song name
# A B C D E F G H I J K L M N O P Q R S T U V W X Y Z

Killers - Human tab

----------------------------------------------------------------------------
                             Human - The Killers
----------------------------------------------------------------------------
Tabbed by:Bearsafety
E-mail:bearsafety@yahoo.com

Tuning:standard


Listen for the switching. This is tricky because it is
played on the off beat.
e|--------------------|
B|--------------------|
G|------3---------2---|
D|-0h1h3-----0h1h3----|
A|--------------------|
E|--------------------|



Lead guitar part - Maybe not note for note, but you get the idea.

e|-----------------------------------------------10--10--13--13--13--13--11-|
B|----11--11--13-----13--13---10--10--10-11----11--11--11--11--10--10--10---|
G|-/10--10--10--10-10--10--10---10--10--------------------------------------|
D|--------------------------------------------------------------------------|
A|--------------------------------------------------------------------------|
E|--------------------------------------------------------------------------|

e|---11-10---|
B|-10-----11-|
G|-----------|
D|-----------|
A|-----------|
E|-----------|


chorus - Strum these listen for switches.
e|-------------------------------------|
B|-------------------------------------|
G|-3-7-8-3------------3-7------5---8-3-|
D|-3-7-8-3-10-8--8-10-3-7-8----5---8-3-|
A|-1-5-6-1-8--10-6-8--1-5-10---3---6-1-|
E|-------------------------------------|

 Bridge- listen for strumming
e|-------------------------|
B|-------------------------|
G|-8--7--7--5--7-8--10--3~-|
D|-8--7--5--3--8-8--10--3~-|
A|-------------------------|
E|-------------------------|






************************************

| /   slide up
| \   slide down
| h   hammer-on
| p   pull-off
| ~   let it ring out


************************************
Tap to rate this tab
# A B C D E F G H I J K L M N O P Q R S T U V W X Y Z