Song name
# A B C D E F G H I J K L M N O P Q R S T U V W X Y Z

Killers - The Rising Tide tab

Killers - The Rising Tide (Solo)
Album - Battle Born
Tabbed By - Jordan Barkman (mrdragoon47@hotmail.com)

Listen for the timing. I'm 95% sure about this tab. Not sure of the effect used.

Solo
e|-----------------------------------------------------------|
B|------------6----------------------------------------------|
G|----------8---6-8-5-6---5-----6-8-6/13-13-13-13-13-13~~----|
D|--------6-------------8---6-8------------------------------|
A|---6h8-----------------------------------------------------|
E|-----------------------------------------------------------|

e|-----------------------------------------------------------|
B|-17-17-------17----------------17--------------------------|
G|------15--------18-15-------------18-15--------------------|
D|---------18-----------18-15-18----------18-15--------------|
A|----------------------------------------------18-16--------|
E|----------------------------------------------------18-18~-|
Tap to rate this tab
 
# A B C D E F G H I J K L M N O P Q R S T U V W X Y Z