Song name
# A B C D E F G H I J K L M N O P Q R S T U V W X Y Z

Killers - Move Away tab

Tabbed by: Joshua Garcia (halofreak731@aol.com)

Tabs for the song: Move Away by The Killers
Please rate and let me know if you have any corrections. Thank you.


Tuning: Standard (E A D G B E)


Intro
Guitar 1:
E||-------------|-------'12~-----|
B||-------------|------'12~------|
G||-------------|-----'12~-------|
D||-----9-~-----|----------------|
A||-----10~-----|----------------|
E||-----0-~-----|----------------|



Guitar 1:
E||--10~-10101010~--------7~---------|
B||------------------8~--------------|
G||------------------------------9~--|
D||----------------------------------| x4
A||----------------------------------|
E||----------------------------------|


Guitar 2:
E||------------------------------------12121212-x-x-12121212-x-x-1212-x-x--|
B||------------------------------------12121212-x-x-12121212-x-x-1212-x-x--|
G||------------------------------------12121212-x-x-12121212-x-x-1212-x-x--|
D||--9---9-9-9-9-9---9-9-9-9-9---9-9---------------------------------------| x3
A||--10--1010101010--1010101010--1010--------------------------------------|
E||--0---0-0-0-0-0---0-0-0-0-0---0-0---------------------------------------|


E||------------------------------------12121212-x-x-12121212-x-x-12121212--|
B||------------------------------------12121212-x-x-12121212-x-x-12121212--|
G||------------------------------------12121212-x-x-12121212-x-x-12121212--|
D||--9---9-9-9-9-9---9-9-9-9-9---9-9---------------------------------------|
A||--10--1010101010--1010101010--1010--------------------------------------|
E||--0---0-0-0-0-0---0-0-0-0-0---0-0---------------------------------------|



Verse
Guitar 1/2:
E||------------------------------------------------------------------|
B||------------------------------------------------------------------|
G||------------------------------------------------------------------|
D||--0-2-2-2-2-2-0-2-2-2-2-2-2h5-5-5---------------------------------| x3
A||----------------------------------2h3-3-3-3-3-3-3\-0-0-0-0-0-0-0--|
E||------------------------------------------------------------------|
     . . . . . . . . . . . . . . . . . . . . . . .    . . . . . . .


E||-----------------------------------------------------|
B||-----------------------------------------------------|
G||-----------------------------------------------------|
D||--0-2-2-2-2-2-0-2-2-2-2-2-2h5-5-5--------------------|
A||----------------------------------2h3-3-3-3-3-3-3-3--|
E||-----------------------------------------------------|
     . . . . . . . . . . . . . . . . . . . . . . . . .



Chorus
Guitar 1/2:
E||------------------------------------12121212-x-x-12121212-x-x-1212-x-x--|
B||------------------------------------12121212-x-x-12121212-x-x-1212-x-x--|
G||------------------------------------12121212-x-x-12121212-x-x-1212-x-x--|
D||--9---9-9-9-9-9---9-9-9-9-9---9-9---------------------------------------| x4
A||--10--1010101010--1010101010--1010--------------------------------------|
E||--0---0-0-0-0-0---0-0-0-0-0---0-0---------------------------------------|



Pre-Verse
Guitar 1/2:
E||--10~-10101010~--------7~---------|
B||------------------8~--------------|
G||------------------------------9~--|
D||----------------------------------| x4
A||----------------------------------|
E||----------------------------------|



Verse
Guitar 1/2:
E||------------------------------------------------------------------|
B||------------------------------------------------------------------|
G||------------------------------------------------------------------|
D||--0-2-2-2-2-2-0-2-2-2-2-2-2h5-5-5---------------------------------| x3
A||----------------------------------2h3-3-3-3-3-3-3\-0-0-0-0-0-0-0--|
E||------------------------------------------------------------------|
     . . . . . . . . . . . . . . . . . . . . . . . .  . . . . . . .


E||-----------------------------------------------------|
B||-----------------------------------------------------|
G||-----------------------------------------------------|
D||--0-2-2-2-2-2-0-2-2-2-2-2-2h5-5-5--------------------|
A||----------------------------------2h3-3-3-3-3-3-3-3--|
E||-----------------------------------------------------|
     . . . . . . . . . . . . . . . . . . . . . . . . .



Chorus
Guitar 1/2:
E||------------------------------------12121212-x-x-12121212-x-x-1212-x-x--|
B||------------------------------------12121212-x-x-12121212-x-x-1212-x-x--|
G||------------------------------------12121212-x-x-12121212-x-x-1212-x-x--|
D||--9---9-9-9-9-9---9-9-9-9-9---9-9---------------------------------------| x4
A||--10--1010101010--1010101010--1010--------------------------------------|
E||--0---0-0-0-0-0---0-0-0-0-0---0-0---------------------------------------|



Bridge
Guitar 1/2:
E||-------|
B||-------|
G||-------|
D||--9-~--|
A||--10~--|
E||--0-~--|


E||---------------------------------------------|---------------------|
B||--5~-------5~----7~-----3~-------5~----------|--5~-------5~----7~--|
G||--4~-------5~----5~-----4~-------4~---7-5-4--|--4~-------5~----5~--|
D||--5~-------7~----7~-----2~-------5~----------|--5~-------7~----7~--|
A||---------------------------------------------|---------------------|
E||---------------------------------------------|---------------------|


E||-------------------------------------------------------------------|
B||---------------------------------------------------------------5~--|
G||--------4~-------------4~-------------4~-------------/4~-------4~--|
D||-----------------------------------------------------------7---5~--|
A||--7~----------7--6~----------6--5~----------5--4~------------------|
E||-------------------------------------------------------------------|


E||------------------------------------------------------------------------|
B||------------------------------------------------------------------------|
G||------------------------------------------------------------------------|
D||------------------------------------------------------------------------|
A||--77777777-66666666-55555555-44444444-33333333333333333333333333333333--|
E||------------------------------------------------------------------------|



Chorus
Guitar 1/2:
E||------------------------------------12121212-x-x-12121212-x-x-1212-x-x--|
B||------------------------------------12121212-x-x-12121212-x-x-1212-x-x--|
G||------------------------------------12121212-x-x-12121212-x-x-1212-x-x--|
D||--9---9-9-9-9-9---9-9-9-9-9---9-9---------------------------------------| x8
A||--10--1010101010--1010101010--1010--------------------------------------|
E||--0---0-0-0-0-0---0-0-0-0-0---0-0---------------------------------------|


E||-------|
B||-------|
G||-------|
D||--9-~--|
A||--10~--|
E||--0-~--|



Outro
Guitar 1:
E||--10~-10101010~--------7~---------|
B||------------------8~--------------|
G||------------------------------9~--|
D||----------------------------------| x4
A||----------------------------------|
E||----------------------------------|


Guitar 2:
E||------------------------------------12121212-x-x-12121212-x-x-1212-x-x--|
B||------------------------------------12121212-x-x-12121212-x-x-1212-x-x--|
G||------------------------------------12121212-x-x-12121212-x-x-1212-x-x--|
D||--9---9-9-9-9-9---9-9-9-9-9---9-9---------------------------------------| x4
A||--10--1010101010--1010101010--1010--------------------------------------|
E||--0---0-0-0-0-0---0-0-0-0-0---0-0---------------------------------------|


Guitar 1:
E||--10~--|
B||-------|
G||-------|
D||-------|
A||-------|
E||-------|


Guitar 2:
E||-------|
B||-------|
G||-------|
D||--9-~--|
A||--10~--|
E||--0-~--|




Tablature Legend
----------------
 h   - hammer-on
 p   - pull-off
 b   - bend
 r   - release bend
 *   - pinch harmonic
 '   - natural harmonic
 x   - mute note
 .   - palm mute
 /   - slide down
 \   - slide up
Tap to rate this tab
# A B C D E F G H I J K L M N O P Q R S T U V W X Y Z