Song name
# A B C D E F G H I J K L M N O P Q R S T U V W X Y Z

Killers - Read My Mind tab

The Killers
Sam's Town
Read My Mind

Tuning: Half-Step Down
No Capo

~ Verse ~
Eb----------------------------------------|
Bb----------------------------------------|
Gb--7-------6-----------------------------| x 2
Db--7-x16---7-x16-------------------------|
Ab--5-------7-----------------------------|
Eb---------(5)----------------------------|

~ Pre-Chorus ~
Eb---------------------------------------------------------------------|
Bb---------------------------------------------------------------------|
Gb---------------------------------------------------------------------| x 2
Db----------12------------------12------------------12-----------------|
Ab---9-10-9----9-10-9----9-10-9----9-10-9----9-10-9----9-10/7----------|
Eb---------------------------------------------------------------------|

~ Chorus ~
Eb--7-------10-------9--(10)--------------|
Bb--8-x8----10-x8----10-(10)--x16---------|
Gb--7-------11-------9--(9)---------------| x 3
Db----------------------------------------|
Ab----------------------------------------|
Eb----------------------------------------|

Eb-------------------------------------------|
Bb---16\14--14\12--12----14\12--12\11--11----|
Gb-------------------------------------------|
Db---14\12--12\10--10----12\10--10\9---9-----|
Ab-------------------------------------------|
Eb-------------------------------------------|

~ Verse ~
Eb----------------------------------------|
Bb----------------------------------------|
Gb--7-------6-----------------------------| x 2
Db--7-x16---7-x16-------------------------|
Ab--5-------7-----------------------------|
Eb---------(5)----------------------------|

~ Pre-Chorus ~
Eb---------------------------------------------------------------------|
Bb---------------------------------------------------------------------|
Gb---------------------------------------------------------------------| x 2
Db----------12------------------12------------------12-----------------|
Ab---9-10-9----9-10-9----9-10-9----9-10-9----9-10-9----9-10/7----------|
Eb---------------------------------------------------------------------|

~ Chorus ~
Eb--7-------10-------9--(10)--------------|
Bb--8-x8----10-x8----10-(10)--x16---------|
Gb--7-------11-------9--(9)---------------| x 3
Db----------------------------------------|
Ab----------------------------------------|
Eb----------------------------------------|

Eb-------------------------------------------|
Bb---16\14--14\12--12----14\12--12\11--11----|
Gb-------------------------------------------|
Db---14\12--12\10--10----12\10--10\9---9-----|
Ab-------------------------------------------|
Eb-------------------------------------------|

~ Guitar Solo ~
Eb------------------------------------------------------|
Bb--15-15-15-15-15-15-15-15//10-10-10-10-10-10-10-10----|
Gb------------------------------------------------------|
Db------------------------------------------------------|
Ab------------------------------------------------------|
Eb------------------------------------------------------|

Eb-----------------------------------------------------------------------|
Bb--8-8--10-10--7-7--8-8---5-7-5-7----7-8b--7--5-7-5---8b-7--5h7p5-------|
Gb------------------------------------------------------------------7----|
Db-----------------------------------------------------------------------|
Ab-----------------------------------------------------------------------|
Eb-----------------------------------------------------------------------|

Eb----------------------------------------------|
Bb--5b----------5-------------------------------|
Gb------7--6-7-----7----/12-12-12-12/14-14-14-14|
Db----------------------------------------------|
Ab----------------------------------------------|
Eb----------------------------------------------|

Eb-----------------------------|
Bb-/12-12-12-12/14-14-14-14----|
Gb-----------------------------|
Db-----------------------------|
Ab-----------------------------|
Eb-----------------------------|

Eb----------------------------------------------------|
Bb---/15-15-15-15/17-17-17-17-17-17-17-17b-17b-15~----|
Gb----------------------------------------------------|
Db----------------------------------------------------|
Ab----------------------------------------------------|
Eb----------------------------------------------------|

~ Chorus ~
Eb--7-------10-------9--(10)--------------|
Bb--8-x8----10-x8----10-(10)--x16---------|
Gb--7-------11-------9--(9)---------------| x 2
Db----------------------------------------|
Ab----------------------------------------|
Eb----------------------------------------|

Eb--------------------------------------------------------------------|
Bb--------------------------------------------------------------------|
Gb-------------------------7------6-----------------------------------|
Db----9------7------5------7-x4---7-x4-----------9-----7------5-------|
Ab----9-x8---7-x8---5-x8---5------4--------------9-x8--7-x8---5-x16---|
Eb----7------5------3----------------------------7-----5------3-------|


~ Outro ~
Eb------------------------------------------|
Bb------------------------------------------|
Gb------------------------------------------| x 2
Db----------12------------------12----------|
Ab---9-10-9----9-10/7----9-10-9----9-10/7---|
Eb------------------------------------------|

Eb---------------------------------------------------------------------|
Bb---------------------------------------------------------------------|
Gb---------------------------------------------------------------------| x 2
Db----------12------------------12------------------12-----------------|
Ab---9-10-9----9-10-9----9-10-9----9-10-9----9-10-9----9-10/7----------|
Eb---------------------------------------------------------------------|

Eb-------|
Bb-------|
Gb---7---|
Db---7---|
Ab---5---|
Eb-------|
Tap to rate this tab
# A B C D E F G H I J K L M N O P Q R S T U V W X Y Z