Song name
# A B C D E F G H I J K L M N O P Q R S T U V W X Y Z

Killers - On Top tab

Intro:
E--------------------------------------------------------------------|
B----------5-4---5---------5-4---5---------4-2---4---------4-2---4---|
G------------------6---------------6---------------4---------------4-|
D--------------6---------------6--------------4----------------4-----|
A--------------------------------------------------------------------|
E----4-4-4-----------4-4-4-----------2-2-2-----------2-2-2-----------|

E---------------------------------------------------------------------|
B----------5-4---5----------5-4---5---------4-2---4---------5-4---5---|
G------------------6----------------6---------------4---------------6-|
D--------------6----------------6---------------4---------------6-----|
A---(7)7)7)---(7)----(7)7)7)------------------------------------------|
E----4-4-4-----------4-4-4------------2-2-2-----------4-4-4-----------|

Verse: (repeat 8x)

E------------------------------------------6----------------6--------|
B-----------4------------4---3-4-------------------------------------|
G---------6----------------6-----6-------8--------------8-----8------|
D-------6--------------6-----------6---9--------------9---9-----9----|
A-----4------------------------------9----------------------------9--|
E--------------------------------------------------------------------|

Chorus: (repeat 2x)(there doesn't seem to be any guitar, I'll post the chords below if 
you want to mess around with them)

E--------------------------------------------------------------------|
B----7-------7-------7-------7-------5-------5-------5-------5-------|
G--------8-------8-------8-------8-------8-------8-------8-------8---|
D----------9-------9-------9-------9-------9-------9-------9-------9-|
A--------------------------------------------------------------------|
E--------------------------------------------------------------------|

(repeat verse 7x)

Bridge (2x(it sounds like there's a a very faint riff along with the chords that sounds 
something like this)

E----------------------------------------------------5---4---5---2---|
B----------------------------------------5---3---2-------------------|
G------2---2---2---2---4---4---4---4-------------------2---2---2---2-|
D----4---4---4---4---6---6---6---6---4-4---4---4---4-----------------|
A--------------------------------------------------------------------|
E--------------------------------------------------------------------|

After the bridge something like this plays, but it seems even MORE faint, feel free to 
ignore it

E----7-7-7-7-4-4-4-4-7-4-4-7-4-4-7------------------------|
B---------------------------------------------------------|
G---------------------------------------------------------|
D---------------------------------------------------------|
A---------------------------------------------------------|
E---------------------------------------------------------|



Chords:

C#m B C#m B

C#m
Remember Rio and get down
B
like some other DJ in some other town
C#m
She's been trying to tell me to hold tight
B
but I've been waiting this whole night
C#m
but I've been down
B
across the road or two
C#m
but now I've found
B
the velvet sun that shines on me and


G#m             B
you in the back uh huh we can't crack
E               C#m
we're on top
G#m                            B
it's just a shimmy and a shake uh huh I can't fake
E              C#m
we're on top we're on top

C#m B

C#m
the day is breaking, we're still here
B
your body's shaking, and it's clear
C#m
you really need it, so let go
B
and let me feed it, but you know
C#m
that I've been down
B
across the road or two
C#m
but now I've found
B
the velvet sun that shine on me and

G#m             B
you in the back uh huh we can't crack
E               C#m
we're on top
G#m                            B
it's just a shimmy and a shake uh huh I can't fake
E              C#m
we're on top we're on top
G#m                            B
we bring the bump to the grind uh huh I don't mind
E            C#m
we're on top we're on top


D            E       F#m     A
and we don't need to satisfy tonight
D            E       F#m     A
so get you eyes of my bride tonight
D            E       F#m     A
cause i don't need to satisfy tonight its like a

Bm               E
cigarette in the mouth or a
Bm               E
handshake in the doorway I
Bm              E
look at you and smile because I'm
F#m
fine

C#m B C#m B
G#m B E C#m
G#m B E C#m

D            E       F#m     A
and we don't need to satisfy tonight
D            E       F#m     A
so get you eyes of my bride tonight
D            E       F#m     A
cause i don't need to satisfy tonight its like a


Bm               E
cigarette in the mouth or a
Bm               E
handshake in the doorway I
Bm              E
look at you and smile because I'm
F#m
fine ahhhhhhhh
Tap to rate this tab
 
# A B C D E F G H I J K L M N O P Q R S T U V W X Y Z