Guitaretab - guitar tabs
Song name
# A B C D E F G H I J K L M N O P Q R S T U V W X Y Z

Killers - Andy Youre A Star tab

Artist:The Killers
Title:Andy,youre a star
Album:Hot fuss

Tuning(s):Standard/half step down

Its a nice song with a cool Intro....Ive seen so much tabs im not able to play this s***...
So i figured it out by my own and tabbed this in two versions:standard tuning;1/2 step down...

Enjoy


Standard tuning(Capo on 4th fret):
[ Tab from: http://www.guitaretab.com/k/killers/53746.html ]
e(0)(0)(0)-0-(0)(0)(0)-0-(0)(0)(0)-0-------------(0)(0)(0)-0-(0)(0)(0)-0----|
H-4--4--1--0--4--4--1--0--4--4--1--0--3--3--0-----4--4--1--0--4--4--1--0----|
G-0--0--2--0--0--0--2--0--0--0--2--0--0--0--0--0--0--0--2--0--0--0--2--0----|
D-3--3--2--0--3--3--2--0--3--3--2--0--0--0--0--0--3--3--2--0--3--3--2--0----|
A-0--0--0--0--0--0--0--0--0--0--0--0--0--0--0--0--0--0--0--0--0--0--0--0----|
E---------------------------------------------------------------------------|

1/2 step Down(no Capo):

e-5--5--5--0--5--5--5--0--5--5--5--0-----------0--5--5--5--0--5--5--5--0----|
H-8--8--7--0--8--8--7--0--8--8--7--0--8--8--5--0--8--8--7--0--8--8--7--0----|
G-5--5--8--0--5--5--8--0--5--5--8--0--5--5--5--0--5--5--8--0--5--5--8--0----|
D-7--7--8--0--7--7--8--0--7--7--8--0--5--5--5--0--8--8--8--0--8--8--8--0----|
A-5--5--5--0--5--5--5--0--5--5--5--0--5--5--5--0--5--5--5--0--5--5--5--0----|
E---------------------------------------------------------------------------|
Related for Andy Youre A Star tab
Advertisement will be closed in 10 seconds