Song name
# A B C D E F G H I J K L M N O P Q R S T U V W X Y Z

Killers - Where Is She tab

This is the synth intro:

e|-8-7---------8-7------|
B|-----8-10--------8-10-|
G|-----------9----------|
D|----------------------|
A|----------------------|
E|----------------------|

Guitar I

|--------------------------------------------------------------------------|
|13-12-10-12--13-12-10-12--13-12-10---13-12-10-12--13-12-10--13-12-10-12---|
|-----------------------------------12---------------------12--------------|
|--------------------------------------------------------------------------|
|--------------------------------------------------------------------------|
|--------------------------------------------------------------------------|

x2
Tap to rate this tab
# A B C D E F G H I J K L M N O P Q R S T U V W X Y Z