Song name
# A B C D E F G H I J K L M N O P Q R S T U V W X Y Z

Killers - Exitlude tab

Artist  The Killers
Track  Exitlude
Tabber  Cal (im_still_alive6@hotmail.com)
Heres just a little piano bit for the exitlude of Sams Town arranged for a guitar, it 
in near the middle of the song and is played to the end. Please rate this tab. Rock on.


Part 1
E|-7-9-7-------------7-|
B|--------9-7-9----7---|
G|---------------9-----|
D|---------------------|
E|---------------------|
A|---------------------|

Part 2
E-7-9-7-------------7-----7--|
B--------9-7-9---9---7-9-----|
G---------------9-----------9|
D----------------------------|
A----------------------------|
E----------------------------| 

After part 2, loop back into part 1 and play three times. 


Or 
P1
G| 11-13-11---------------------|
D|------------13-11-13-11-------|
A|----------------------------14|

P2
G|----11---------11---|
D|-13----11-13--------|
A|-----------------14-| 
Tap to rate this tab
# A B C D E F G H I J K L M N O P Q R S T U V W X Y Z