Song name
# A B C D E F G H I J K L M N O P Q R S T U V W X Y Z

Killers - Sweet Talk tab

----------------------------------------------------------------------------
			     Sweet Talk - Spiritualized
----------------------------------------------------------------------------
Tabbed by: InSanAndreas
Email: leeaustin1990@hotmail.com

Tuning:Standard

Easy really just Chords A and E all the way though.

  [A]      [E]
e|-0--------0----|
B|-2--------0----|
G|-2--------1----|
D|-2--------2----|
A|-0--------2----|
E|-0--------0----|
Tap to rate this tab
 
# A B C D E F G H I J K L M N O P Q R S T U V W X Y Z