Guitaretab - guitar tabs
Song name
# A B C D E F G H I J K L M N O P Q R S T U V W X Y Z

Killing Heidi - Black Sheep tab

Artist: Killing Heidi
Song: Black Sheep
[ Tab from: http://www.guitaretab.com/k/killing-heidi/126137.html ]
CHORD CHART(standard tuning)   Cmajor   Dsus/B    Aminor    Fmajor 
e|---0----|----0----|----0----|----1----| 
B|---1----|----3----|----1----|----1----| 
G|---0----|----0----|----2----|----2----| 
D|---2----|----0----|----2----|----3----| 
A|---3----|----2----|----0----|----3----| 
E|---x----|----x----|----x----|----1----|         INTRO 
 Will you walk from what we got 
Will you walk from what we gotVERSE 
Walk    through the long dry grass Past the trees and  then on past 
All the  places we have been before 
       ****| There is nice little wind instrument sound (ie. flute) |**** 
       ****| that starts from the word "before" in the last line of |**** 
       ****| the first verse...ill tab it here for guitar           |**** 
Through the tracks the sheep have made  Past the dam and into the shade 
You can see the other towns from hereCHORUSFmajor> 
Will you walk from what we got Will you walk from what we gotVERSE 
 And as you walk back down 
you know thats where u wanna be found it always makes you feel that way 
Now as you wonder why these things sometimes pass us by 
so would you throw it all awayCHORUS / OUTROFmajor> 
Will you walk from what we got Will you walk from what we got 
I say Will you walk from what we got Will you walk from what we got 
****| There is nice little wind instrument sound (ie. flute) |**** 
****| that starts from the word "before" in the last line of |**** 
****| the first verse...ill tab it here for guitar.          |**** 
****| This is played at the end of every verse phrase        |**** 
          e|------------------------------------| 
          B|-------------5------8------5---6-5--| 
          G|--------5-5-----5-5----5-5---5------| 
          D|------------------------------------| 
          A|------------------------------------| 
          E|------------------------------------| 
           And this is what is played during the verse.... 
          e|------------------------------------| 
          B|--------------------5-----6-5-------| 
          G|---------------5-5-----5------------| 
          D|------------------------------------| 
          A|------------------------------------| 
          E|------------------------------------|
Related for Black Sheep tab
Black Sheep chords by Killing Heidi