Song name
# A B C D E F G H I J K L M N O P Q R S T U V W X Y Z

Killing Heidi - Weir tab

-----------------------------------------------------------------------------
                             WEIR - Killing Heidi
-----------------------------------------------------------------------------
Tabbed by: Callum Foot
Email:calbie.yeah@gmail.com

Tuning: Standard

Intro/Verse/Outro (Clean)
   D                    G              A
e|--------2-----0------------------------------------|
B|-----------3-----3--------------------------2h3p2--|
G|-----2---------------2--------0--------------------|
D|-0-------------------------------0-------2---------|
A|--------------------------2----------0-------------|
E|-----------------------3---------------------------|

Pre-Chorus (Clean)
   Cadd9                   G
e|-3----3-3-3-----3-3-3----3----3-3-3------3---------|
B|-3----3-3-3-----3-3-3----3----3-3-3------3---------|
G|-0----0-0-0-----0-0-0----0----0-0-0------0---------|
D|-2----2-2-2-----2-2-2----0----0-0-0------0---------|
A|-3----3-3-3-----3-3-3----2----2-2-2------2---------|
E|-0----0-0-0-----0-0-0----3----3-3-3------3---------|

Chorus (Overdrive)
   A                D                G                G
e|---------------------------------------------------------------------|x4
B|-2--2----2-2-2----7--7----7-7-7--------------------------------------|
G|-2--2----2-2-2----7--7----7-7-7----0--0----0-0-0----0--0----0-0-0----|
D|-2--2----2-2-2----5--5----5-5-5----0--0----0-0-0----0--0----0-0-0----|
A|-0--0----0-0-0----5--5----5-5-5----2--2----2-2-2----2--2----2-2-2----|
E|-----------------------------------3--3----3-3-3----3--3----3-3-3----|

Bridge (Overdrive)
   G
e|-------------------------------------------------------|x4
B|-------------------------------------------------------|
G|-------------------------------------------------------|
D|-------0---------0-------------------0---------0-------|
A|-3-2-0-3---3-2-0-3---3-2-0-0---3-2-0-3---3-2-0-3-------|
E|-3-3-3-3---3-3-3-3---3-3-3-3---3-3-3-3---3-3-3-3-------|

Lyrics

Intro:

Verse:
Old friend of mine,
we will never lose the time,
that we shared all these years,
these years.

Old friend of mine,
we will never lose the time
that we shared all these years,
these years

Pre-chorus:
will you...

Chorus:
Will you make it in the end?
Through all the twists and bends,
will you full fill your dreams?
Not as easy as it seems.

Verse:
Lover friend of mine,
we will never lose the time,
that we, covered in our tears in our tears.

Lover friend of mine, we will
never lose the time,
that we, covered in our tears in our tears.

Pre-chorus:
Will you...

Chorus:
Will you make it in the end?
Through all the twists and bends,
will you full fill your dreams?
Not as easy as it seems.

Bridge:

Verse:
Floating in the weir , and you
think you'll never sink ,
so you, forget all your fears,
your fears.

Floating in the weir,
and you think you'll never sink,
so you forget all your fears,
your fears.

Pre-chorus:
Will you.....

Chorus:
Will you make it in the end?
Through all the twists and bends,
will you full fill your dreams?
Not as easy as it seems.

Outro:

End.


************************************
| /   slide up
| \   slide down
| h   hammer-on
| p   pull-off
************************************
Tap to rate this tab
# A B C D E F G H I J K L M N O P Q R S T U V W X Y Z