Song name
# A B C D E F G H I J K L M N O P Q R S T U V W X Y Z

Killing Heidi - Outside Of Me tab

Tabbed by: GUITAR CHICK
Email:KELSEY__ROCKSTAR@HOTMAIL.COM

Tuning:STANDARD
INTRO /OUTRO/VERSE

e|----5--5--5--5----5---5--5--5---5---5---5---5--|
B|--33-33-33-33---00--00-00-00-------------------|
G|------------------------------00--00--00--00---|
D|-----------------------------------------------|
A|-----------------------------------------------|
E|-----------------------------------------------|

e|---0-------2-------------------------------------------------------------------|
B|---0---------3-----------------------------------------------------------------|
G|---0------2--------------------------------------------------------------------|
D|---2---------------------------------------------------------------------------|
A|---2---------------------------------------------------------------------------|
E|-------------------------------------------------------------------------------|
           LET RING THEN BACK TO VERSE
CHORUS
[WHEN YOUR RITE OUTSIDE OF ME]
e|------------------------------------------|
B|------------------------------------------|
G|--4-4-4-4--4-4-4-4------------------------|
D|--4-4-4-4--4-4-4-4----5--5-5-5---5-5-5-5--|
A|--2-2-2-2--2-2-2-2----5--5-5-5---5-5-5-5--|
E|----------------------3--3-3-3---3-3-3-3--|
              DISTORTION
BRIDGE
[U WAKE UP ]
e|-0------2----------------3----2---------------------------------------------------|
B|-0--------3-----1--------3------3-------------------------------------------------|
G|-0------2--------0------------2---------------------------------------------------|
D|-2----------------2---------------------------------------------------------------|
A|-2------------------3----2--------------------------------------------------------|
E|-------------------------3--------------------------------------------------------|
THE BACK TO CHOURUS

FOR OUTRO PLAY VERSE THE FADE OUT

HAVE FUN
Tap to rate this tab
# A B C D E F G H I J K L M N O P Q R S T U V W X Y Z