Song name
# A B C D E F G H I J K L M N O P Q R S T U V W X Y Z

Killing Joke - Winter Gardens tab


WINTERGARDENS (part). Album: Brighter Than a Thousand Suns (1986).

INTRO Clear sound (maybe with a 450ms delay) Let ring...

D-------------------------------------------0-------------|
A-----------------------0---------------------0-----------|
F----------0---------2-----------0--------------0---------|
C------------------------------4----4---------------------|
G---0^2--------2------------0-----------------------------|
D-0--------------------------------------3------------(2)-|


RIFF 1 VERSES Let ring ///////////= slide the edge of your mediator on the string
Notes ( ) are payed sometimes

D-------------------------------------|
A--8---7---6---5--(5--5)--------------|
F--7---4---5---5--(5--5)--------------|
C-------------------------------------|
G-------------------------------------|
D---------------------//////////////--|
Tap to rate this tab
# A B C D E F G H I J K L M N O P Q R S T U V W X Y Z