Song name
# A B C D E F G H I J K L M N O P Q R S T U V W X Y Z

Killing Joke - Democracy tab

DEMOCRACY. Album : Democracy (1996)

INTRO. Played with acoustic guitar, also played in VERSES. Let ring…

D----2---3------------------|
A----0---0-----2-----2^3--0-|
F-0----0----0--0--0--0-0--0-|
C---------------------------|
G---------------------------|
D---------------------------|

D----2---3------------------|
A----0---0-----2-----2^3--0-|
F--------------0-----0-0--0-|
C-4----4----4-----4---------|
G---------------------------|
D---------------------------|

D----1---3------------------|
A----0---0-----1-----1^3--0-|
F--------------0-----0-0--0-|
C-3----3----3-----3---------|
G---------------------------|
D---------------------------|

D----2---3------------------|
A----0---0-----2-----2^3--0-|
F--------------0-----0-0--0-|
C-2----2----2-----2---------|
G---------------------------|
D---------------------------|

VERSES. Electric guitar part. Let ring…

D-2--3--------------2--3--------------1--3--------------2--3-------------|
A-0-—0-—2-—2-2^3-0--0--0--2--2-2^3-0--0--0--1--1-1^3-0--0--0--2--2-2^3-0-|
F-------0--0-0-0-0--------0--0-0-0-0--------0--0-0-0-0--------0--0-0-0-0-|
C------------------------------------------------------------------------|
G------------------------------------------------------------------------|
D------------------------------------------------------------------------|

CHORUS. Played by both electric and acoustic guitars. Let ring…

D-------5-----3-----0-----0-------------5-----3-----0-----0------|
A---0^3---3-----3-----3-----3-------0^3---3-----3-----3-----3----|
F-0---------0-----0-----0-----0----------------------------------|
C-------------------------------0-2---------2-----2-----2------2-|
G----------------------------------------------------------------|
D----------------------------------------------------------------|


BREAK (electric guitar only).

D--------------------------|
A--------------------------|
F--------------------------|
C-5-5----4-4----3-3----2-2-|
G-5-5----4-4----3-3----2-2-|
D-3-3----2-2----1-1----0-0-|
Tap to rate this tab
 
# A B C D E F G H I J K L M N O P Q R S T U V W X Y Z