Song name
# A B C D E F G H I J K L M N O P Q R S T U V W X Y Z

Killing Joke - Unspeakable tab

UNSPEAKABLE. Album: What's THIS For? (1981)
Updated : Feb. 06 2006

VERSES Let ring

E-(0)-0-0-0---------------------------|
B-(5)-5-5-5--------------------8-8-8--|
G-(4)-4-4-4-0-0-0-0-0-0-0-0-0^-7-7-7--|
D-----------0-0-0-0-0-0-0-0-0---------|
A-------------------5-5-5-5-5---------|
E-------------------3-3-3-3-3---------|

As played sometimes

E--0-0-0------------15-15-15-15-15-15-15-|
B--5-5-5------------15-15-15-15-15-15-15-|
G--4-4-4-0-0-0-0--0--0--0--0--0--0--0--0-|
D--------0-0-0-0--0--0--0--0--0--0--0--0-|
A----------------------------------------|
E----------------------------------------|

CHORUS Let ring. All down strokes

E-------------------------------------------------------------------|
B---------------------------------9-9-9-9-9-9-9-9-8-8-8-8-6-6-6-6---|
G-9-9-9-9-9-9-9-9-9-9-9-9-9-9-9-9-8-8-8-8-8-8-8-8-8-8-8-8-8-8-8-8---|
D-7-7-7-7-7-7-7-7-7-7-7-7-7-7-7-7-----------------------------------|
A-0-0-0-0-0-0-0-0-0-0-0-0-0-0-0-0-----------------------------------|
E-------------------------------------------------------------------|
Tap to rate this tab
# A B C D E F G H I J K L M N O P Q R S T U V W X Y Z