Song name
# A B C D E F G H I J K L M N O P Q R S T U V W X Y Z

Killing Joke - Hum tab

THE HUM . Album: Revelations (1982)
POSTED BY ANTHONY (TABAZAN@NETCOURRIER.COM)
Updated : Feb. 06 2006

This song is played with DGCFAD tuning in NWOBFG/Love like Blood

INTRO (also played in CHORUS). Let ring

D#-----------------------------8---8-------|
A#-----------------------------8---8-------|
F#--1------2-----2-------0------------0----|
C#----1----------------------------------0-|
G#------0----0-0---0--6-----6----6---------|
D#-----------------------------------------|

Played sometimes, before verses.Let ring....

D#----------8---8------------------8---8-------|
A#----------8---8------------------8---8-------|
F#-----0-----------0---------0------------0----|
C#--------------------0----------------------0-|
G#--6-----6---6-----------6-----6----6---------|
D#---------------------------------------------|

VERSES Different ways to play it. ( )= played sometimes

D#----------------------------------------------|
A#--15-15-------------------------------(15)----|
F#--14-14---13-13-13--13-13-13--13-13-13---(13)-|
C#--12-12----0--0--0---0--0--0---0--0--0--------|
G#----------------------------------------------|
D#----------------------------------------------|

D#-----------------------16-16-16--16--16-16-|
A#--15-15--15------------15-15-15--15--15-15-|
F#--14-14--14--13-13-13--13-13-13--13--13-13-|
C#--12-12--12---0--0--0---0--0--0---0---0--0-|
G#-------------------------------------------|
D#-------------------------------------------|

D#----------------------16-16-16-16-16-16-16-16-|
A#--15-15-15------------15-15-15-15-15-15-15-15-|
F#--14-14-14--13-13-13--13-13-13-13-13-13-13-13-|
C#--12-12-12---0--0--0---0--0--0--0--0--0--0--0-|
G#----------------------------------------------|
D#----------------------------------------------|
Tap to rate this tab
# A B C D E F G H I J K L M N O P Q R S T U V W X Y Z