Guitaretab - guitar tabs
Song name
# A B C D E F G H I J K L M N O P Q R S T U V W X Y Z

Killing Joke - Pandemonium tab

PANDEMONIUM (part). Album: Pandemonium (1994)
Updated march 10 2006

MAIN RIFF

Guitar 1

D------------6-5-3--------------------------------------|
A--2^3---3---------6-5-3------2^3---3---6-5-3-----------|
F--0-0---0---------------5----0-0---0---------6-5-3-2-0-|
C-------------------------------------------------------|
G-------------------------------------------------------|
D-------------------------------------------------------|


Another way to play it, with half a tone bends.
V = bend half a tone.
Play first the bent note (D-5, A-5 and F-5) and after the same note without any bend 
!).

D---------5V-5-3--------------------------------------|
A-2^3--3---------5V-5-3------2^3--35V-5-3------------|
F-0-0--0----------------5-3--0-0--0--------5V-5-3-----|
C-0-0--0---------------------0-0--0---------------5-3-|
G-----------------------------------------------------|
D-----------------------------------------------------|


BREAK (As played in the last verse)

D-----------------------------------------------------|
A-2^3--3-5V-5-3-------------2^3--35V-5-3------------|
F-0-0--0---------5V-5-3------0-0--0--------5V-5-3-----|
C-0-0--0----------------5-3--0-0--0---------------5-3-|
G-----------------------------------------------------|
D-----------------------------------------------------|


Guitar 2 Let ring the chords, D-6-5-3 are palm-muted

D-----------------------------------------------|
A-----------------------------------------------|
F-----------------------------------------------|
C--5----5-------------------5----5----------0-3-|
G--5----5-------------------5----5----------0-3-|
D--3----3---6-5-3---6-5-3---3----3---6-5-3----1-|

RIFF 2/ BREAK Let ring the chords, D-3 is palm-muted

D-------------------------|
A-------------------------|
F-------------------------|
C-----------7-----------8-|
G-----------5-----------8-|
D--3-3-3-3--5--3-3-3-3--6-|

Posted: Feb 15 2006, 10:04 AM


PANDEMONIUM (Cybersank remix version). Album : Pandemonium (1994)


MAIN RIFF. Let ring Play only down strokes.

GUITAR 1
[ Tab from: http://www.guitaretab.com/k/killing-joke/163895.html ]
D---------6-5-3-----------------------------------|
A-2^3--3--------6-5-3-----2^3--3--6-5-3-----------|
F-0-0--0--------------5-0-0-0--0--------6-5-3-----|
C-0-0--0------------------0-0--0--------------5-3-|
G-------------------------------------------------|
D-------------------------------------------------|

Another way to play it, with half a tone bends.
V = bend half a tone.
Play first the bent note (D-5, A-5 and F-5) and after the same note without any bend 
!), it's the same pattern strumming than the one posted just higher (6th case notes instead 
5th bent)...

D---------5V-5-3--------------------------------------|
A-2^3--3---------5V-5-3------2^3--35V-5-3------------|
F-0-0--0----------------5-3--0-0--0--------5V-5-3-----|
C-0-0--0---------------------0-0--0---------------5-3-|
G-----------------------------------------------------|
D-----------------------------------------------------|


BREAK (As played in the last verse)

D-----------------------------------------------------|
A-2^3--3-5V-5-3-------------2^3--35V-5-3------------|
F-0-0--0---------5V-5-3------0-0--0--------5V-5-3-----|
C-0-0--0----------------5-3--0-0--0---------------5-3-|
G-----------------------------------------------------|
D-----------------------------------------------------|


GUITAR 2. Let ring the chords, palm-mute the single notes.

D--------------------------------------|
A--------------------------------------|
F--------------------------------------|
C-5--5----------------5--5---------0-3-|
G-5--5----------------5--5---------0-3-|
D-3--3--3-1-1--3-1-1--3--3--3-1-1----1-|

BREAK 1 Let ring the chords, palm-mute the single notes.

D----------------------|
A----------------------|
F----------------------|
C---------7----------8-|
G---------5----------8-|
D-3-3-3-3-5--3-3-3-3-6-|


BREAK 2. Palm-mute the single notes. Cut the chords ringing (relaxing the fretting hand)

D---------------------------------|
A---------------------------------|
F---------------------------------|
C-----5-----5-----5-----6---------|
G-----5-----5-----5-----5---------|
D-3-3---3-3---3-3---3-3---3-3-4-6-|
Related for Pandemonium tab