Song name
# A B C D E F G H I J K L M N O P Q R S T U V W X Y Z

Killing Joke - This World Hell tab

Main Riff
---pm----------|
---------------|
---------------|
---2-----------|
---2-----------|
---0-----------|
just compare this powerchord with song
Chours
-------------------------------------|
-------------------------------------|
---5---7----9------------------------|
---5---7----9------------------------|
---3---5----7------------------------|
-------------------------------------|
just compare this powerchords with song
Riff 2
----------------------------|
----------------------------|
----------------------------|
----------------------------|
----------------------------|
--0-3-5-0-5-7-07-9--0-10-12-|
End Chords
after last chours
--------------------------|
--------------------------|
--5-----7-----------------|
--5-----7-----7-----------|
--3-----5-----7-----------|
--------------5-----------|
just compare this powerchord with song
This is my first tab. Enjoy & rate
Tap to rate this tab
 
# A B C D E F G H I J K L M N O P Q R S T U V W X Y Z