Song name
# A B C D E F G H I J K L M N O P Q R S T U V W X Y Z

Killing Joke - The House That Pain Built tab

-------------------------------------------------------------------------------
                              THE HOUSE THAT PAIN BUILT
                           As recorded by Killing Joke
                       (From the 2003 Album KILLING JOKE)
-------------------------------------------------------------------------------

Words by Jaz Coleman

Music by Andy Gill, Martin "Youth" Glover & Kevin "Geordie" Walker


Transcribed by BaronLundi

Tuning (D G C F A D)

Q=95
4/4

              ~~~~~
  H     Q     Q
|------------<7>-----|
|------<7>--(<7>)----|
|--------------------|
|--------------------|
|--------------------|
|--------------------|


        PM------|      PM------|      PM|
     E  S  S  S  S  E  S  S  S  S  E  S  S
||-----------------------------------------|
||o----------------------------------------|
||-----------------------------------------|
||-----------------------------------------|
||o-16-------------16-------------16-------|
||--14-14-14-14-14-14-14-14-14-14-14-14-14-|


      PM------|      PM------|      PM|        PM------|      PM------|      PM|
   E  S  S  S  S  E  S  S  S  S  E  S  S    E  S  S  S  S  E  S  S  S  S  E  S  S
|----------------------------------------|------------------------------------------|
|----------------------------------------|------------------------------------------|
|----------------------------------------|------------------------------------------|
|----------------------------------------|------------------------------------------|
|-15-------------15-------------15-------|-14-------------14-------------14---------|
|-14-14-14-14-14-14-14-14-14-14-14-14-14-|-14-14-14-14-14-14-14-14-14-14-14-14-14---|


  1.,3.
      PM------|
   E  S  S  S  S  E  +S   S  S  S  S  S  S  S
|----------------------------------------------||
|---------------------------------------------o||
|----------------------------------------------||
|----------------------------------------------||
|-14-------------14-(14)-17----14----17----14-o||
|-15-15-15-15-15-15-(15)----15----15----15-----||


  2.
      PM------|      PM------|      PM|
   E  S  S  S  S  E  S  S  S  S  E  S  S
|----------------------------------------||
|---------------------------------------o||
|----------------------------------------||
|----------------------------------------||
|-14-------------14-------------14------o||
|-15-15-15-15-15-15-15-15-15-15-15-15-15-||


       PM----|    PM----|    PM|       PM------|      PM------|      PM|
     E S S S S  E S S S S  E S S    E  S  S  S  S  E  S  S  S  S  E  S  S
||-------------------------------|----------------------------------------|
||o------------------------------|----------------------------------------|
||-------------------------------|----------------------------------------|
||--11---------11---------11-----|-12-------------12-------------12-------|
||o--9-9-9-9-9--9-9-9-9-9--9-9-9-|-10-10-10-10-10-10-10-10-10-10-10-10-10-|
||-------------------------------|----------------------------------------|


      PM------|      PM------|      PM|         PM------|
   E  S  S  S  S  E  S  S  S  S  E  S  S     E  S  S  S  S  E  +S   S  S  S  S  S  S  S
|----------------------------------------||----------------------------------------------||
|----------------------------------------||---------------------------------------------o||
|----------------------------------------||----------------------------------------------||
|----------------------------------------||----------------------------------------------||
|-14-------------14-------------14-------||-14-------------14-(14)-17----14----17----14-o||
|-14-14-14-14-14-14-14-14-14-14-14-14-14-||-15-15-15-15-15-15-(15)----15----15----15-----||


       PM----|    PM----|    PM|       PM------|      PM------|      PM|
     E S S S S  E S S S S  E S S    E  S  S  S  S  E  S  S  S  S  E  S  S
||-------------------------------|----------------------------------------|
||o------------------------------|----------------------------------------|
||-------------------------------|----------------------------------------|
||--11---------11---------11-----|-12-------------12-------------12-------|
||o--9-9-9-9-9--9-9-9-9-9--9-9-9-|-10-10-10-10-10-10-10-10-10-10-10-10-10-|
||-------------------------------|----------------------------------------|


      PM------|      PM------|      PM|      PM----|   PM----|   PM|
   E  S  S  S  S  E  S  S  S  S  E  S  S   E S S S S E S S S S E S S   4x
|----------------------------------------|-----------------------------||
|----------------------------------------|----------------------------o||
|----------------------------------------|-----------------------------||
|-11-------------11-------------11-------|-7---------7---------7-------||
|-12-12-12-12-12-12-12-12-12-12-12-12-12-|-9-9-9-9-9-9-9-9-9-9-9-9-9--o||
|----------------------------------------|-----------------------------||


    Q=190
    E E S S S S S S S S S S S S   E S S S S S S S S S S S S S S   8x
||------------------------------|---------------------------------||
||o-----------------------------|--------------------------------o||
||------------------------------|---------------------------------||
||------------------------------|---------------------------------||
||o-----------------------------|--------------------------------o||
||--0h2-2-2-2-2-2-2-2-2-2-2-2-2-|-2-2-2-2-2-2-2-2-2-2-2-2-2-2-2---||


    Q=95
    E E E E E E E E   E E E E E E E E  3x
||------------------|------------------||
||o-----------------|-----------------o||
||------------------|------------------||
||------------------|------------------||
||o-4---4-5-5-5-5-5-|-7---7-9-9-9-9-9-o||
||----2---5-5-5-5-5-|---7---9-9-9-9-9--||


  E E E E E E E E   E E E E E E E E   E E E E E E E E
|-----------------|-----------------|---------0-0-0-0-|
|-----------------|-----------------|-----0-0-0-0-0-0-|
|-----------------|-----------------|---0-0-0-x-0-0-0-|
|-----------------|-----------------|-----x-x-x-x-x-x-|
|-4---4-5-5-5-5-5-|-7-7-7-7-7-7-7-7-|-7-7-7-7-7-7-7-7-|
|---2---5-5-5-5-5-|-7-7-7-7-7-7-7-7-|-7-7-7-7-7-7-7-7-|


                     ~~~
  Q  H.        H     H
|------------|------<7>----|
|------------|------<7>----|
|------------|-------------|
|------------|-------------|
|-7----------|-------------|
|-7----------|-------------|


     PM----|    PM----|    PM|       PM------|      PM------|      PM|
   E S S S S  E S S S S  E S S    E  S  S  S  S  E  S  S  S  S  E  S  S
|------------------------------|-----------------------------------------|
|------------------------------|-----------------------------------------|
|------------------------------|-----------------------------------------|
|-11---------11---------11-----|-12-------------12-------------12--------|
|--9-9-9-9-9--9-9-9-9-9--9-9-9-|-10-10-10-10-10-10-10-10-10-10-10-10-10--|
|------------------------------|-----------------------------------------|


      PM------|      PM------|      PM|         PM------|
   E  S  S  S  S  E  S  S  S  S  E  S  S     E  S  S  S  S  E  +S   S  S  S  S  S  S  S
|----------------------------------------||---------------------------------------------|
|----------------------------------------||---------------------------------------------|
|----------------------------------------||---------------------------------------------|
|----------------------------------------||---------------------------------------------|
|-14-------------14-------------14-------||-14-------------14-(14)-17----14----17----14-|
|-14-14-14-14-14-14-14-14-14-14-14-14-14-||-15-15-15-15-15-15-(15)----15----15----15----|


       PM----|    PM----|    PM|       PM------|      PM------|      PM|
     E S S S S  E S S S S  E S S    E  S  S  S  S  E  S  S  S  S  E  S  S
||-------------------------------|----------------------------------------|
||o------------------------------|----------------------------------------|
||-------------------------------|----------------------------------------|
||--11---------11---------11-----|-12-------------12-------------12-------|
||o--9-9-9-9-9--9-9-9-9-9--9-9-9-|-10-10-10-10-10-10-10-10-10-10-10-10-10-|
||-------------------------------|----------------------------------------|


      PM------|      PM------|      PM|      PM----|   PM----|   PM|
   E  S  S  S  S  E  S  S  S  S  E  S  S   E S S S S E S S S S E S S   4x
|----------------------------------------|-----------------------------||
|----------------------------------------|----------------------------o||
|----------------------------------------|-----------------------------||
|-11-------------11-------------11-------|-7---------7---------7-------||
|-12-12-12-12-12-12-12-12-12-12-12-12-12-|-9-9-9-9-9-9-9-9-9-9-9-9-9--o||
|----------------------------------------|-----------------------------||


    Q=190
    E E S S S S S S S S S S S S   E S S S S S S S S S S S S S S   8x
||------------------------------|---------------------------------||
||o-----------------------------|--------------------------------o||
||------------------------------|---------------------------------||
||------------------------------|---------------------------------||
||o-----------------------------|--------------------------------o||
||--0h2-2-2-2-2-2-2-2-2-2-2-2-2-|-2-2-2-2-2-2-2-2-2-2-2-2-2-2-2---||


    Q=95
    E E E E E E E E   E E E E E E E E  3x
||------------------|------------------||
||o-----------------|-----------------o||
||------------------|------------------||
||------------------|------------------||
||o-4---4-5-5-5-5-5-|-7---7-9-9-9-9-9-o||
||----2---5-5-5-5-5-|---7---9-9-9-9-9--||


  E E E E E E E E   E E E E E E E E   E E E E E E E E
|-----------------|-----------------|---------0-0-0-0-|
|-----------------|-----------------|-----0-0-0-0-0-0-|
|-----------------|-----------------|---0-0-0-x-0-0-0-|
|-----------------|-----------------|-----x-x-x-x-x-x-|
|-4---4-5-5-5-5-5-|-7-7-7-7-7-7-7-7-|-7-7-7-7-7-7-7-7-|
|---2---5-5-5-5-5-|-7-7-7-7-7-7-7-7-|-7-7-7-7-7-7-7-7-|


  Q  H.        W
|------------|------|
|------------|------|
|------------|------|
|------------|------|
|-7----------|------|
|-7----------|------|


       PM----|    PM----|    PM|       PM------|      PM------|      PM|
     E S S S S  E S S S S  E S S    E  S  S  S  S  E  S  S  S  S  E  S  S
||-------------------------------|----------------------------------------|
||o------------------------------|----------------------------------------|
||-------------------------------|----------------------------------------|
||--11---------11---------11-----|-12-------------12-------------12-------|
||o--9-9-9-9-9--9-9-9-9-9--9-9-9-|-10-10-10-10-10-10-10-10-10-10-10-10-10-|
||-------------------------------|----------------------------------------|


      PM------|      PM------|      PM|         PM------|
   E  S  S  S  S  E  S  S  S  S  E  S  S     E  S  S  S  S  E  +S   S  S  S  S  S  S  S
|----------------------------------------||----------------------------------------------||
|----------------------------------------||---------------------------------------------o||
|----------------------------------------||----------------------------------------------||
|----------------------------------------||----------------------------------------------||
|-14-------------14-------------14-------||-14-------------14-(14)-17----14----17----14-o||
|-14-14-14-14-14-14-14-14-14-14-14-14-14-||-15-15-15-15-15-15-(15)----15----15----15-----||


       PM----|    PM----|    PM|       PM------|      PM------|      PM|
     E S S S S  E S S S S  E S S    E  S  S  S  S  E  S  S  S  S  E  S  S
||-------------------------------|----------------------------------------|
||o------------------------------|----------------------------------------|
||-------------------------------|----------------------------------------|
||--11---------11---------11-----|-12-------------12-------------12-------|
||o--9-9-9-9-9--9-9-9-9-9--9-9-9-|-10-10-10-10-10-10-10-10-10-10-10-10-10-|
||-------------------------------|----------------------------------------|


      PM------|      PM------|      PM|      PM----|   PM----|   PM|
   E  S  S  S  S  E  S  S  S  S  E  S  S   E S S S S E S S S S E S S
|----------------------------------------|-----------------------------||
|----------------------------------------|----------------------------o||
|----------------------------------------|-----------------------------||
|-11-------------11-------------11-------|-7---------7---------7-------||
|-12-12-12-12-12-12-12-12-12-12-12-12-12-|-9-9-9-9-9-9-9-9-9-9-9-9-9--o||
|----------------------------------------|-----------------------------||


    Q=190
    E E S S S S S S S S S S S S   E S S S S S S S S S S S S S S   8x
||------------------------------|---------------------------------||
||o-----------------------------|--------------------------------o||
||------------------------------|---------------------------------||
||------------------------------|---------------------------------||
||o-----------------------------|--------------------------------o||
||--0h2-2-2-2-2-2-2-2-2-2-2-2-2-|-2-2-2-2-2-2-2-2-2-2-2-2-2-2-2---||


    Q=95
    E E E E E E E E   E E E E E E E E  3x
||------------------|------------------||
||o-----------------|-----------------o||
||------------------|------------------||
||------------------|------------------||
||o-4---4-5-5-5-5-5-|-7---7-9-9-9-9-9-o||
||----2---5-5-5-5-5-|---7---9-9-9-9-9--||


  E E E E E E E E     E E E E E E E E   E E E E E E E E
|-----------------||------------------|---------0-0-0-0--||
|-----------------||o-----------------|-----0-0-0-0-0-0-o||
|-----------------||------------------|---0-0-0-x-0-0-0--||
|-----------------||------------------|-----x-x-x-x-x-x--||
|-4---4-5-5-5-5-5-||o-7-7-7-7-7-7-7-7-|-7-7-7-7-7-7-7-7-o||
|---2---5-5-5-5-5-||--7-7-7-7-7-7-7-7-|-7-7-7-7-7-7-7-7--||


    E E E E E E E E   E E E E E E E E  3x
||------------------|------------------||
||o-----------------|-----------------o||
||------------------|------------------||
||------------------|------------------||
||o-4---4-5-5-5-5-5-|-7---7-9-9-9-9-9-o||
||----2---5-5-5-5-5-|---7---9-9-9-9-9--||


  E E E E E E E E   E E E E E E E E   E E E E E E E E
|-----------------|-----------------|---------0-0-0-0-|
|-----------------|-----------------|-----0-0-0-0-0-0-|
|-----------------|-----------------|---0-0-0-x-0-0-0-|
|-----------------|-----------------|-----x-x-x-x-x-x-|
|-4---4-5-5-5-5-5-|-7-7-7-7-7-7-7-7-|-7-7-7-7-7-7-7-7-|
|---2---5-5-5-5-5-|-7-7-7-7-7-7-7-7-|-7-7-7-7-7-7-7-7-|


                     ~~~
  Q  H.        H     H
|------------|------<7>----|
|------------|------<7>----|
|------------|-------------|
|------------|-------------|
|-7----------|-------------|
|-7----------|-------------|


     PM----|    PM----|    PM|       PM------|      PM------|      PM|
   E S S S S  E S S S S  E S S    E  S  S  S  S  E  S  S  S  S  E  S  S
|------------------------------|-----------------------------------------|
|------------------------------|-----------------------------------------|
|------------------------------|-----------------------------------------|
|-11---------11---------11-----|-12-------------12-------------12--------|
|--9-9-9-9-9--9-9-9-9-9--9-9-9-|-10-10-10-10-10-10-10-10-10-10-10-10-10--|
|------------------------------|-----------------------------------------|


      PM------|      PM------|      PM|         PM------|      PM------|      PM|
   E  S  S  S  S  E  S  S  S  S  E  S  S     E  S  S  S  S  E  S  S  S  S  E  S  S
|----------------------------------------||-----------------------------------------|
|----------------------------------------||-----------------------------------------|
|----------------------------------------||-----------------------------------------|
|----------------------------------------||-----------------------------------------|
|-14-------------14-------------14-------||-14-------------14-------------14--------|
|-14-14-14-14-14-14-14-14-14-14-14-14-14-||-15-15-15-15-15-15-15-15-15-15-15-15-15--|

   Q  H.        W
|-------------|------*|
|-------------|------*|
|-------------|------*|
|-------------|------*|
|-16----------|------*|
|-14----------|------*|


Duration Legend
---------------
W - whole; H - half; Q - quarter; E - 8th; S - 16th; T - 32nd; X - 64th; a - acciaccatura
+ - note tied to previous; . - note dotted; .. - note double dotted

Tablature Legend
----------------
 h   - hammer-on
 p   - pull-off
 b   - bend
 pb  - pre-bend
 r   - bend release (if no number after the r, then release immediately)
 /\  - slide into or out of (from/to "nowhere")
 s   - legato slide
 S   - shift slide
  - natural harmonic
[n]  - artificial harmonic
n(n) - tapped harmonic
 ~   - vibrato
 tr  - trill
 T   - tap
 TP  - trem. picking
 PM  - palm muting
\n/  - tremolo bar dip; n = amount to dip
 \n  - tremolo bar down
 n/  - tremolo bar up
/n\  - tremolo bar inverted dip
 =   - hold bend; also acts as connecting device for hammers/pulls
 <>  - volume swell (louder/softer)
 x   - on rhythm slash represents muted slash
 o   - on rhythm slash represents single note slash

Misc Legend
-----------
 |  - bar
||  - double bar
||o - repeat start
o|| - repeat end
*|  - double bar (ending)
 :  - bar (freetime)
 $  - Segno
 &  - Coda
Tempo markers -  = BPM(8/16=s8/s16), where s8 = swing 8ths, s16 = swing 16ths
Tap to rate this tab
 
# A B C D E F G H I J K L M N O P Q R S T U V W X Y Z