Song name
# A B C D E F G H I J K L M N O P Q R S T U V W X Y Z

Killing Joke - Total Invasion tab

TOTAL INVASION. Album : Killing Joke 2003
Updated : Jan 18th 2006

RIFF 1. All palm-muted and all down strokes.

D-----------------------------------|
A-----------------------------------|
F-----------------------------------|
C-----------------------------------|
G-4-4-4-4-2-2-2-2-3-3-3-3-6-6-6-6---|
D-2-2-2-2-0-0-0-0-1-1-1-1-4-4-4-4---|


RIFF 2. As played just before 1st verse. Let ring… All down strokes

D-----------------------------------------------------------------|
A-----------------------------------------------------------------|
F-----------------------------------------------------------------|
C-----------------------------------------------------------------|
G-4-4-4-4-2-2-2-2-4-4-4-4-7-7-7-7-4-4-4-4-2-2-2-2-3-3-3-3-6-6-6-6-|
D-2-2-2-2-0-0-0-0-2-2-2-2-5-5-5-5-2-2-2-2-0-0-0-0-1-1-1-1-4-4-4-4-|

RIFF 3. As played just before the first chorus. Let ring, all down strokes.

D-----------------------------------------------------------------|
A-----------------------------------------------------------------|
F-----------------------------------------------------------------|
C-----------------------------------------------------------------|
G-4-4-4-4-2-2-2-2-4-4-4-4-7-7-7-7-4-4-4-4-2-2-2-2-4-4-4-4-7-7-7-7-|
D-2-2-2-2-0-0-0-0-2-2-2-2-5-5-5-5-2-2-2-2-0-0-0-0-2-2-2-2-5-5-5-5-|

D----------------------------------|
A----------------------------------|
F----------------------------------|
C----------------------------------|
G-4-4-4-4-2-2-2-2-3-3-3-3-6-6-6-6--|
D-2-2-2-2-0-0-0-0-1-1-1-1-4-4-4-4--|


RIFF 4 / CHORUS. Let ring all the chords…

D-------------------------------0-------------------|
A-------------------------------0--0-0--------------|
F-2-2-2--2--2-2--5--5-5----2----2--2-2--------------|
C-2-2-2--2--2-2--5--5-5--3-3-3--3--3-3--5---3--3-3--|
G-0-0-0--0--0-0--3--3-3--3-3-3--3--3-3--3---1--1-1--|
D---------------------------------------------------|

RIFF 5 / BREAK. All palm-muted except the first two chords.

D----------------------------------|
A----------------------------------|
F----------------------------------|
C-9-9------------------------------|
G-7-7-----9-9-9-9-8-8-8-8-6-6-6-6--|
D-0-0-0-0-7-7-7-7-6-6-6-6-4-4-4-4--|
Tap to rate this tab
 
# A B C D E F G H I J K L M N O P Q R S T U V W X Y Z