Song name
# A B C D E F G H I J K L M N O P Q R S T U V W X Y Z

Killing Joke - The Death And Resurrection Show tab

THE DEATH AND RESURRECTION SHOW . Album : Killing Joke 2003
		Updated jan .18 2006

INTRO / VERSES . All palm-muted.

D------------------|
A------------------|
F------------------|
C-2--2---2--2---2--|
G-0--0---1--0---1--|
D------------------|

CHORUS. Let ring all the strings…

D-------------------------------------------------------------------|
A------------------4-------------3--3-3--5--5---3-------------------|
F-5--5-5—-4-^5--5--4--4--4---4---3--3-3--3--3---3---2--2-2^3-2--2-2-|
C-2--2-2--2--2--2--2--2--2---2---2--2-2--2--2---2---2--2-2---2--2-2-|
G-0--0-0—-0--0--0--0--0--0---0---0--0-0--0--0---0---0--0-0---0--0-0-|
D-------------------------------------------------------------------|

KNOCKS.

D-----------|
A-----------|
F-2-2--2-2--|
C-2-2--2-2--|
G-0-0--0-0--|
D-----------|
Tap to rate this tab
# A B C D E F G H I J K L M N O P Q R S T U V W X Y Z