Guitaretab - guitar tabs
Song name
# A B C D E F G H I J K L M N O P Q R S T U V W X Y Z

Killing Joke - Night Time tab

NIGHT TIME. Album: Night Time (1985) Updated feb. 6 2006

To play this track , i use delay effect to reproduce the jerky effect in verses/break...
If you don't have delay or fine parameters, you'll have to DOUBLE each palm-muted note...
Here are the DELAY PARAMETERS you'll have to use:
Delay time : 100/105ms.....Feedback : 0/1 (to have one single repeat)...Volume : 100/max=direct volume.

MAIN RIFF G-string=palm-muted, C-string=slightly palm-muted......^=slide
In the intro, Geordie plays the A-0 note each time, half a time in verses, let it ring...

D----------------------------------------------------------------------------|
A--------------------------------------------------------------------------0-|
F------------------------------------------------------------------------0---|
C------3--4------3--4------3--4-------3^4^5--5---5--5-5--5--5-5--5--5-5------|
G-2--2------2--2------2--2-------2--2----------0---0----0--0----0--0---0-----|
D----------------------------------------------------------------------------|


As played sometimes…
D----------------------------------------------------------------------------|
A--------------------------------------------------------------------------0-|
F------------------------------------------------------------------------0---|
C------3--4------0--4------3--4-------3---5---5--5-5---5-------5---5-5-------|
G-2--2------2--2------2--2-------2--2-------0---0----0---0-0-0---0-----0-----|
D----------------------------------------------------------------------------|

BREAK. Let ring the chord, G-1 = palm-muted
[ Tab from: http://www.guitaretab.com/k/killing-joke/70805.html ]
D-------0-----------------------------------|
A---------3---------------------------------|
F-----------3-------------------------------|
C-------------------------------------------|
G-0--1---------1--1--1--1--1--1--1--1--1--1-|
D-------------------------------------------|

CHORUS. Let ring… (you can switch off the delay or not).


D--------------------------------------------------------------------|
A--------------------------------------------------------------------|
F----6----6-----6----7^6----11--11---6----6-----6----7^6----11--11---|
C-----------0-------------------------------0------------------------|
G-4-----4-----4----4-----4^9--9---4-----4-----4----4-----4^9--9------|
D--------------------------------------------------------------------|

D--------------------------------------------------------------------|
A-----------0---------0--------------------0-------0-------0-------0-|
F----4-------------4-----4-----6---6---4------4-------4--------4-----|
C--------------------------------------------------------------------|
G-2------2------2----------2^4-------2---2-------2-------2-------2---|
D--------------------------------------------------------------------|

YOU CAN PLAY THE LARSEN PART WITH THIS NOTES (with a “slow attack” or “violonning” efx)
								X 2
D-----17----------------------------------------------|
A----------------17--------18^17---18^17---18^17---18-|
F-14--------14---------14-----------------------------|
C-----------------------------------------------------|
G-----------------------------------------------------|
D-----------------------------------------------------|
Related for Night Time tab
×
Night Time