Song name
# A B C D E F G H I J K L M N O P Q R S T U V W X Y Z

Killing Joke - Exorcism tab

EXORCISM. Album: Pandemonium (1994)
Updated : Feb. 06 2006

MAIN RIFF Low D-4 string is palm-muted. Last chords ==up stroke and slide.

D----------------------------|
A----------------------------|
F----------------------------|
C------------------------3^2-|
G--6----------6----------3^2-|
D--4--4-4-4-4-4--4-4-4-4-1^0-|


RIFF 2	. ^ = hammer-on / pull-off.Uncessant fast up/down strokes

D-7-7-7-7-7-7-7-7-7-----------|
A-0-0-0-0-0-0-0-0-0-2^3^2^0---|
F---------------------------1-|
C-----------------------------|
G-----------------------------|
D-----------------------------|

RIFF 3 Let ring

D-------------10-10-10-10-10-10-10-|
A--9--9--9--9^11-11-11-11-11-11-11-|
F--8--8--8--8^10-10-10-10-10-10-10-|
C--6--6--6--6----------------------|
G--6--6--6--6----------------------|
D----------------------------------|
Tap to rate this tab
 
# A B C D E F G H I J K L M N O P Q R S T U V W X Y Z