Song name
# A B C D E F G H I J K L M N O P Q R S T U V W X Y Z

Killing Joke - We Have Joy tab

WE HAVE JOY. Album: Revelations (1982)
Updated : Feb. 06 2006

Listen to the song to feel the changes

INTRO (also played before Break) Let ring

D#----------------------------------|
A#----------------------------------|
F#--------5-------5-------5-------5-|
C#-----4-------4-------4-------4----|
G#--3--------3-------3-------3------|
D#----------------------------------|

RIFF 1 Let ring G#-0 string, "cut" the C#-F#-A# chord by pressing with the fretting hand.

D#--------------------------------------------------|
A#--7-----7-----7---7---7---7-----7-----7---7---7---|
F#--8-----8-----8---8---8---8-----8-----8---8---8---|
C#--7-----7-----7---7---7---7-----7-----7---7---7---|
G#----0-0---0-0---0---0---0---0-0---0-0---0---0---0-|
D#--------------------------------------------------|


RIFF 2 Let ring F#-0 string, "cut" the A#-7 note by pressing with the fretting hand.

D#---------------------------------------------------|
A#--------------7---7---7----------------7---7---7---|
F#------5--5----7---7---7-----------5----7---7---7---|
C#----4-------5---5---5---5-------4----5---5---5---5-|
G#--3-------------------------3-3--------------------|
D#---------------------------------------------------|

BREAK Part 1 Let ring (still alternating up/down strokes)

D#--5-----5-----5-----------|
A#--6-----6-----6-----0-----|
F#--4--4--4--4--4--4----0---|
C#------------------------0-|
G#--------------------------|
D#--------------------------|

BREAK Part 2 "Cut" the chord by pressing with the fretting hand

D#-----------------------------|
A#--7------7------7---7---7----|
F#--5------5------5---5---5----|
C#--4------4------4---4---4----|
G#-----3-3----3-3----3---3---3-|
D#-----------------------------|
Tap to rate this tab
# A B C D E F G H I J K L M N O P Q R S T U V W X Y Z