Song name
# A B C D E F G H I J K L M N O P Q R S T U V W X Y Z

Killing Joke - Age Of Greed tab

AGE OF GREED. Album : Extremities, Dirt and Various Repressed Emotions.

Updated jan. 18 2006.

RIFF 1 / MAIN. Let ring the first chords until you play low D-0 note.

D-----0---------------------------|
A----0-----------------------0----|
F---6--------------------------5--|
C--6------------------------------|
G-4------------------0-0-0-2--3---|
D--------0-0-0-1-1-1--------------|

RIFF 2

D-----0----------|
A----0-----------|
F---6------------|
C--6-------------|
G-4--------------|
D--------0-0-0-1-|

RIFF 3

D-----0-----------------------------|
A----0------------------------------|
F---6-------------------------------|
C--6--------------------------------|
G-4------------------0-0-0-7-7-5-5--|
D--------0-0-0-1-1-1----------------|

RIFF 4. Let ring…

D-------------8-8--8-8--8--|
A-7-7-7-7-7^8-8-8--8-8--8--|
F-6-6-6-6-7-7-7-7--7-7--7--|
C-6-6-6-6------------------|
G--------------------------|
D--------------------------|

RIFF 5. Also played by keyboards.

D------------------------------------------|
A------------------------------------------|
F------------------------------------------|
C------------------------------------------|
G-4-3^4-4-3^4-0-1-2-3-4-3^4-4-3^4-0-1-2-3--|
D------------------------------------------|

RIFF 6. Alternate with RIFF 5.

D-12-12-12-12--12-12--12--|
A-12-12-12-12--12-12--12--|
F-10-10-10-10--10-10--10--|
C-------------------------|
G-------------------------|
D-------------------------|

RIFF 7. Let ring…

D-0--0--0---0--0--0---0--|
A-0--0--0---0--0--0---0--|
F-9-----9------9------0--|
C-9-----9------9-----12--|
G-7-----7------7-----10--|
D-0----------------------|

RIFF 8. All notes are harmonics played on 7th fret. G-(0) played sometimes; Let ring…

D-------------------------------------|
A-------------------------------------|
F---------7-----7---------(0)7-----7--|
C------7-----7-----------7-----7------|
G-7-7---------------7-7---------------|
D-------------------------------------|

RIFF 9.

D-------------------------------|
A-------------------------------|
F-------------------------------|
C-------------------------------|
G-------------------------7--6--|
D-9-9-9-8-8-8-7-7-7-6-6-6-5--4—-|

RIFF 10.

D-------------------------------|
A-------------------------------|
F-------------------------------|
C-------------------------5--4--|
G-7-7-7-6-6-6-5-5-5-4-4-4-3--2--|
D-------------------------------|

RIFF 11.		RIFF 12

D----------------/-----------------------------------|
A----------------/-----------------------------------|
F----------------/-----------------------------------|
C-4-4-4----------/-4-4-4-------------0-0-0-7-7-5-5---|
G-------0-0-0-1--/-------0-0-0-1-1-1-----------------|
D----------------/-----------------------------------|

RIFF 13. End riff. Let ring…

D-8--8--8----------------8--8--8------------------|
A-------------------------------------------------|
F----------9^10—9^10—9^10---------9^10—9^10—9^10--|
C-------------------------------------------------|
G-------------------------------------------------|
D-------------------------------------------------|
Tap to rate this tab
# A B C D E F G H I J K L M N O P Q R S T U V W X Y Z