Guitaretab - guitar tabs
Song name
# A B C D E F G H I J K L M N O P Q R S T U V W X Y Z

Killing Me Inside - The Tormented tab

Song:The tormented
Artist:killing me Inside
Tuning:Drop D
.smelly legs 125.                       ~=vibrato   p=pull off   *=palm mute
This is my first tab..
Intro guitar/piano
----------------------------------------------------|
-------------------5-6-8-5-6------------------------|
-----------------7-----------5----7-9-10-12-10-9-5~-|
--------------7-7-7-7-7-7-7-7--8-8-8-8-8---8--8-8---|
----------------------------------------------------|
----------------------------------------------------|
continue
---------------------8-0----------------------------|
-------------------5-----6--------------------------|
-----------------7---------5----7-9-10-12~~---------|
--------------7-7-7-7-7-7-7--8-8-8-8--8-------------|
----------------------------------------------------|
----------------------------------------------------|

Verse
----------------------------------------------------------|
----------------------------------------------------------|
---------7-7-7-7-7-7---3-3-3-3-3-3---5-5-5-5-5-5----------|
---------7-7-7-7-7-7---3-3-3-3-3-3---5-5-5-5-5-5---0-0----|
---------5-5-5-5-5-5---1-1-1-1-1-1---3-3-3-3-3-3---0-0----|
---------------------------------------------------0-0----|
                                                   * *

[ Tab from: http://www.guitaretab.com/k/killing-me-inside/188874.html ]
----------------------------------------------------------|
----------------------------------------------------------|
---------7-7-7-7-7-7---3-3-3-3-3-3---5-5-5-5-5-5----------|
---------7-7-7-7-7-7---3-3-3-3-3-3---5-5-5-5-5-5----------|
---------5-5-5-5-5-5---1-1-1-1-1-1---3-3-3-3-3-3----------|
----------------------------------------------------------|
Can,you,see,me..
-------------------------------------------------------------|
-------------------------------------------------------------|
---------5-x-x-x-x-------------------------------------------|
---------5-x-x-x-x-3time-----8-8-8-8-------10-10-10-10-------|
---------7-x-x-x-x-----------8-8-8-8-7time-10-10-10-10-7time-|
-----------------------------8-8-8-8-------10-10-10-10-------|
you know i was dying..
------------------------------------------------------------------------------|
------------------------------------------------------------------------------|
---------7-7---7-7---7-7---7-7---55---10p9---8-8-8-8-------10-10-10-10--------|
---------7-7---7-7---7-7---7-7---55------10--8-8-8-8-2time-10-10-10-10-2time--|
---------5-5---5-5---5-5---5-5---77----------8-8-8-8-------10-10-10-10--------|
                                             * * * *        *  *  *  *

Thats it for now..its not the whole song..the next part figure out yourself
sorry if there is a mistake..
Related for The Tormented tab