Song name
# A B C D E F G H I J K L M N O P Q R S T U V W X Y Z

Killing Me Inside - The Tormented tab

this is 100%
promise
cross my heart!:)

TABs BY: Jeremiah Constantino!

-----------------------------------------------|
-----------------------------------------------|
------------2---------------------2-0----------|
------0-2-3---3-5-2-----0-2-3---------3--------|
-----0-0-0-0-0-0-0-0---1-1-1-1---3-3-3-3-------|
----0-----------------0---------0--------------|

-----------------------------------------------|
-----------------------------------------------|
------------5---------------------2-0----------|
------0-2-3---2-3-2------0-2-3--------3--------|
-----0-0-0-0-0-0-0-0-3--1-1-1-1--3-3-3-3-------|
----0------------------0--------0--------------|

-----------------------------------------------|
-----------------------------------------------|
------------2----------------------------------|
------0-2-3---3-5-2-----0-2-3-----2-3-5--------|
-----0-0-0-0-0-0-0-0---1-1-1-1---3-3-3---------|
----0-----------------0---------0--------------|


RAwrrrrr!
Tap to rate this tab
# A B C D E F G H I J K L M N O P Q R S T U V W X Y Z