Song name
# A B C D E F G H I J K L M N O P Q R S T U V W X Y Z

Killing Me Inside - The Tormented tab

Tabulated legends:

~ - vibrato
p - pull off
. - palm mute
b - bend

whats up dudes I'm Kelly Mark Faustino from Tandang Sora Q.C Philippines
I'm not really sure about this tab XD


intro:
e|-------------------------------------------|
B|-------------------------------------------|
G|----------2-----------------------2-0------|
D|----0-2-3---3-5-2------0-2-3----------3----|
A|---0-0-0-0-0-0-0-0----1-1-1-1----3-3-3-3---|
D|--0-----------------0----------0-----------|

e|-------------------------------------------|
B|-------------------------------------------|
G|----------5----------------------2-0-------|
D|----0-2-3---3-5-2------0-2-3---------3-----|
A|---0-0-0-0-0-0-0-0----1-1-1-1---3-3-3-3----|
D|--0------------------0---------0-----------|

e|-------------------------------------------|
B|-------------------------------------------|
G|----------2-----------------------2-0------|
D|----0-2-3---3-5-2------0-2-3----------3----|
A|---0-0-0-0-0-0-0-0----1-1-1-1----3-3-3-3---|
D|--0-----------------0----------0-----------|

e|-------------------------------------------|
B|-------------------------------------------|
G|----------5----------------------2-0-------|
D|----0-2-3---3-5-2------0-2-3---------3-----|
A|---0-0-0-0-0-0-0-0----1-1-1-1---3-3-3-3----|
D|--0------------------0---------0-----------|





pre-verse:
e|---------------------------------------|
B|---------------------------------------|
G|--7-7-7-7-7-7---3-3---5-5-5------------|
D|--7-7-7-7-7-7---3-3---5-5-5---0-0-0----|
A|--5-5-5-5-5-5---1-1---3-3-3---0-0-0----|
D|------------------------------0-0-0----|
                                . . .
                                     
                                        For the last time!!!
e|-------------------------------------------------|
B|-------------------------------------------------|
G|--7-7-7-7-7-7---3-3---5-5-5-----------2----------|
D|--7-7-7-7-7-7---3-3---5-5-5---0-5-3-0---5-3-0----|
A|--5-5-5-5-5-5---1-1---3-3-3----------------------|
D|-------------------------------------------------|
                                . . . . . . . .




verse:

both guitars.

you waste my tears now,
no more torment
e|----------------------------------|
B|----------------------------------|
G|--7-7-7-7-7-7---3-3---5-5-5-------|
D|--7-7-7-7-7-7---3-3---5-5-5-------|
A|--5-5-5-5-5-5---1-1---3-3-3-------|
D|----------------------------------|


Rhythm.

But don't just say u've gone away
e|----------------------------------|
B|----------------------------------|
G|--7-7-7-7-7-7---3-3---5-5-5-------|
D|--7-7-7-7-7-7---3-3---5-5-5-------|
A|--5-5-5-5-5-5---1-1---3-3-3-------|
D|----------------------------------|


Lead.
e|------------------------------------------|
B|------------------------------------------|
G|--7-7-7-7-7-7---3-3-----------2-----------|
D|--7-7-7-7-7-7---3-3---0-5-3-0---5-3-0-----|
A|--5-5-5-5-5-5---1-1-----------------------|
D|------------------------------------------|
                        . . . . . . . .

Rhythm.

You tell a fuckin' tale
Swallow me and spit me out
e|----------------------------------|
B|----------------------------------|
G|--7-7-7-7-7-7---3-3---5-5-5-------|
D|--7-7-7-7-7-7---3-3---5-5-5-------|
A|--5-5-5-5-5-5---1-1---3-3-3-------|
D|----------------------------------|


Lead.
e|-----------8----------------------------------------------|
B|-----8-6-5---6-5-6----------------------------------------|
G|---7-----------------------------------------2------------|
D|-------------------------------------0-5-3-0---5-2-0------|
A|-------------------------8---7---10-----------------------|
D|---------------------0-0---0---0--------------------------|
                       . . . . . . .   . . . . . . . . 

Rhythm.

How do I get trought of this?
I can't stand it anymore
e|----------------------------------|
B|----------------------------------|
G|--7-7-7-7-7-7---3-3---5-5-5-------|
D|--7-7-7-7-7-7---3-3---5-5-5-------|
A|--5-5-5-5-5-5---1-1---3-3-3-------|
D|----------------------------------|


Lead.
e|-----------8----------------------------------------------|
B|-----8-6-5---6-5-6----------------------------------------|
G|---7-----------------------------------------2------------|
D|-------------------------------------0-5-3-0---5-3-0------|
A|-------------------------8---7---10-----------------------|
D|---------------------0-0---0---0--------------------------|
                       . . . . . . .   . . . . . . . .





breakdown 1:

Can, you, see, me...                          Smiling when I sing this song
e|------------------------------------------------------------------|
B|------------------------------------------------------------------|
G|---7-7-x-x-x-x---7-7-x-x-x-x---7-7-x-x-x-x---3-3-3-3-3---5--------|
D|---7-7-x-x-x-x---7-7-x-x-x-x---7-7-x-x-x-x---3-3-3-3-3---5-x6-----|
A|---5-5-x-x-x-x---5-5-x-x-x-x---5-5-x-x-x-x---1-1-1-1-1---3--------|
D|------------------------------------------------------------------|

Right, now...                                  I just want to be alive
e|-----------------------------------------------------------------------|
B|-----------------------------------------------------------------------|
G|---7-7-x-x-x-x---7-7-x-x-x-x---7-7-x-x-x-x---3--------------2----------|
D|---7-7-x-x-x-x---7-7-x-x-x-x---7-7-x-x-x-x---3-x5---0-5-3-0---5-3-0----|
A|---5-5-x-x-x-x---5-5-x-x-x-x---5-5-x-x-x-x---1-------------------------|
D|-----------------------------------------------------------------------|
                                                      . . . . . . . .
pre-chorus:

You know I was dying when you told me           That I'm not yours anymore
e|---------------------------------------10b-----------------------|
B|-----------------------------------------------------------------|
G|-------7-7---7-7---7-7---7-7------10p9--------8------10----------|
D|-------7-7---7-7---7-7---7-7-----------10-----8-x8---10-x8-------|
A|-------5-5---5-5---5-5---5-5------------------8------10----------|
D|-----------------------------------------------------------------| 
                                                .      . 

You know I was dying when you told me        
e|-------------------------------10--------|
B|-----------------------------------------|
G|--7-7---7-7---7-7---7-7---10p9-----8-----|
D|--7-7---7-7---7-7---7-7--------10--8-x8--|
A|--5-5---5-5---5-5---5-5------------8-----|
D|-----------------------------------------|

You're just playing and fooling around with me
e|---------------------------------------10b------|
B|------------------------------------------------|
G|---------2--------------------------------------|
D|-0-5-3-0---5-3-0--------------------------------|
A|------------------------8---7---10---8----------|
D|------------------0-0-0---0---0----0------------|
.      . . . . . . . .  . . . . . . .  . . .




chorus:
When the time she comes and wakes me
She comes and wakes me
e|----------------------------------|
B|----------------------------------|
G|--7-7-7-7-7-7---3-3---5-5-5-------|
D|--7-7-7-7-7-7---3-3---5-5-5-------|
A|--5-5-5-5-5-5---1-1---3-3-3-------|
D|----------------------------------|

And when she bit my lips and kissed me there
e|----------------------------------|
B|----------------------------------|
G|--7-7-7-7-7-7---3-3---5-5-5-------|
D|--7-7-7-7-7-7---3-3---5-5-5-------|
A|--5-5-5-5-5-5---1-1---3-3-3-------|
D|----------------------------------|

And when she holds my hand and lives my life tonight
Live tonight
e|----------------------------------|
B|----------------------------------|
G|--7-7-7-7-7-7---3-3---5-5-5-------|
D|--7-7-7-7-7-7---3-3---5-5-5-------|
A|--5-5-5-5-5-5---1-1---3-3-3-------|
D|----------------------------------|

When she said that she really loves me
Were the worst fucking days
e|----------------------------------|
B|----------------------------------|
G|--7-7-7-7-7-7---3-3---5-5-5-------|
D|--7-7-7-7-7-7---3-3---5-5-5-------|
A|--5-5-5-5-5-5---1-1---3-3-3-------|
D|----------------------------------|

This tab is unfinished I'm still figuring it out

Tap to rate this tab
# A B C D E F G H I J K L M N O P Q R S T U V W X Y Z