Song name
# A B C D E F G H I J K L M N O P Q R S T U V W X Y Z

Killing Me Inside - The Tormented tab

what's up the fans of the band 'Killing Me Inside' I am a Master of SowoZ '53
I can only contribute to tabulate only the intro song The Tormented

:D  :D  :D  :D  :D  :D  :D  :D  :D  :D  :D  :D  :D  :D  :D  :D  :D  :D

Intro guitar :

e|--------------------5------5------8------|
B|---------6---6---8----6------6------6----|
G|---7---7---7------------7------7------7--|
D|-----------------------------------------|
A|-----------------------------------------|
D|-----------------------------------------|

e|-----------------------------------------|
B|------6--------------------8-------------|
G|-----------9---7--9------------10--9--10-|
D|-8--8----8---8------10--10---10----------|
A|-----------------------------------------|
D|-----------------------------------------|

e|--------------------5------5------8------|
B|---------6---6---8----6------6------6----|
G|---7---7---7------------7------7------7--|
D|-----------------------------------------|
A|-----------------------------------------|
D|-----------------------------------------|

e|--------------------------------|
B|--------------------------------|
G|---------------10--9--10--------|
D|---8--8--10--8------------------|
A|--------------------------------|
D|--------------------------------|
Tap to rate this tab
# A B C D E F G H I J K L M N O P Q R S T U V W X Y Z