Song name
# A B C D E F G H I J K L M N O P Q R S T U V W X Y Z

Killing The Dream - Resolutions tab

-------------------------------------------------------------------------------
			     Resolutions - Killing The Dream
-------------------------------------------------------------------------------
Tabbed by: Brendan Pivin-Dans
Email: x-xbrendanx-x@hotmail.com

Tuning: From standard drop your E to D
                              Intro
e|----1----------1-------------------1-----------1---------------------------|
B|---------------------------------------------------------------------------|
G|-------2--0-------2--0----------------2--0---------2--0--------------------|
D|------------------------------0--------------------------------------------|
A|------------------------1-----0---------------------------1----------------|
E|------------------------------0--------------------------------------------|

e|---------------------------------------------------------------------------|
B|---------------------------------------------------------------------------|
G|---------------------------------------------------------------------------|
D|-0--..............................-----------------------------------------|
A|-0--000000000000000000000000000000-----------------------------------------|
E|-0--000000000000000000000000000000-----------------------------------------|
   Verse
e|---------------------------------------------------------------------------|
B|-------(1)-----------------(2)-------------Repeat(1)--FigureoutRhymthe-----|
G|---------------------------------------------------------------------------|
D|-0--......--22222222--0--......--33332222-------------2-2-2223-33-3333-----|
A|-0--000000--33333333--0--000000--55553333-------------0-0-0001-11-1111-----|
E|-0--000000------------0--000000--------------------------------------------|
           Other guitar continues intro notes while this riff^^^
e|-----------------------------------------------------------------------------|
B|-----------------------------------------------------------------------------|
G|------Repeat riff ontop but dont let the first note ring, palm mute----------|
D|-----it and make it double to eight notes like the other 0's-----------------|
A|------Both guitars do it this time-------------------------------------------|
E|-----------------------------------------------------------------------------|

e|-------------------13(x8)----------------------------------------------------|
B|-----------------------------------------------------------------------------|
G|-----------------------------------------------------------------------------|
D|----0-0-xxxxxx-0-0---------3-33333-5-55-5555--0-0-xxxxxx-0-0-xxxxxx-0~-------|
A|----0-0-xxxxxx-0-0---------3-33333-5-55-5555--0-0-xxxxxx-0-0-xxxxxx-0~-------|
E|----0-0-xxxxxx-0-0---------3-33333-5-55-5555--0-0-xxxxxx-0-0-xxxxxx-0~-------|

e|-1---------------------------------------------------------------------------|
B|-----------(Then Repeat)-----------------------------------------------------|
G|----2-0----------------------------------------------------------------------|
D|-----------------------------------------------------------------------------|
A|-----------------------------------------------------------------------------|
E|-----------------------------------------------------------------------------|
  Repeat verse, but dont palm mute and its a different rhymthe, figure it out
  On the second time one guitar does this
e|-----------------------------------------------------------------------------|
B|-----------------------------------------------------------------------------|
G|--------------14-12--10------------12-10--9-----------10-9-12----------------|
D|---------------x--x--x--------------x--x--x------------x-x--x----------------|
A|---00-000-00--12-10--8--00-000-00--10--8--7--00-000-00-8-7-10----------------|
E|---00-000-00------------00-000-00------------00-000-00-----------------------|

This part is hard to hear i just play it this way
e|-----------------------------------------------------------------------------|
B|-----------------------------------------------------------------------------|
G|-10\9--10\9-10\9--10\9--7/9\7------------------------------------------------|
D|--xx----x-x--x-x---x-x--x-x-x-0----------------------------------------------|
A|--8\7---8\7--8\7---8\7--5/7\5-0----------------------------------------------|
E|------------------------------0----------------------------------------------|

e|-------5~------5-6p5-----5------5-6h5-----5~---6p5---8--6p5-6p5---8--6p5---|
B|-----6-------6---------6------6---------6----------6------------6----------|
G|---7-------7---------7------7---------7------------------------------------|
D|---------------------------------------------------------------------------|
A|---------------------------------------------------------------------------|
E|---------------------------------------------------------------------------|
Dont take these parts to the exact note, i might have an extra note here and there or
one, but they should be 95% correct
e|---6-6-6-5-5-5-------6-6-6-5-5-----6-6-6-5-5-5-------8-8-8-6-6-5-5-5-5-----|
B|---------------6-6-6-----------6-6-------------6-6-6-----------------------|
G|---------------------------------------------------------------------------|
D|---------------------------------------------------------------------------|
A|---------------------------------------------------------------------------|
E|---------------------------------------------------------------------------|

e|---6-6-6-6-5-5-------------------------------------------------------------|
B|---------------6-6-6-6-6-6-6-6-5-6-6-6-6-6-6-6-6-5-5-5-5-5-5-5-5-----------|
G|---------------------------------------------------------------------------|
D|---------------------------------------------------------------------------|
A|---------------------------------------------------------------------------|
E|---------------------------------------------------------------------------|

e|---6-6-6-5-5-5-------6-6-6-5-5-----13-13-13-6-6-6-5-5-5--------------------|
B|---------------6-6-6-----------5-5----------------------6-6-6-6-6-6-6-6----|
G|---------------------------------------------------------------------------|
D|---------------------------------------------------------------------------|
A|---------------------------------------------------------------------------|
E|---------------------------------------------------------------------------|

e|------------------------------12-12-12----------12-12-12-12-12-12-12-12----|
B|---11-11-11-11-11-11-10-10-10----------10-10-10----------------------------|
G|---------------------------------------------------------------------------|
D|---------------------------------------------------------------------------|
A|---------------------------------------------------------------------------|
E|---------------------------------------------------------------------------|

e|--13-13-13-13-13-13-13-13-----------------------------------------------------|
B|------------------------------------------------------------------------------|
G|------------------------------------------------------------------------------|
D|------------------------------------------------------------------------------|
A|------------------------------------------------------------------------------|
E|------------------------------------------------------------------------------|
after that just reapeat the 12 and 13 on the high e slowing down at the begining after 
goes like this
e|-15-15-15-13-13-13-12-12-12-------------------------15-15-15-13-13-13-12-12-12|
B|----------------------------13-13-13-13-13-13-13-13---------------------------|
G|------------------------------------------------------------------------------|
D|------------------------------------------------------------------------------|
A|------------------------------------------------------------------------------|
E|------------------------------------------------------------------------------|

e|----------------------15-15-15-13-13-13-12-12-12---------------------------|
B|-13-13-13-11-11-10-10----------------------------13-13-13-13-13-13-13-13-13|
G|---------------------------------------------------------------------------|
D|---------------------------------------------------------------------------|
A|---------------------------------------------------------------------------|
E|---------------------------------------------------------------------------|

e|---------------------------------------------------------------------------|
B|-11-11-11-10-10-10-10-10-10-10---------------------------------------------|
G|-------------------------------10-10-10-10-10-10-10-10---------------------|
D|---------------------------------------------------------------------------|
A|---------------------------------------------------------------------------|
E|---------------------------------------------------------------------------|

e|-------------------------------------------------13-------13-------13------|
B|-10-11-11-11-11-10-10-10-10-11-11-11-11-10-10-10----11-10----11-10----11-10|
G|---------------------------------------------------------------------------|
D|---------------------------------------------------------------------------|
A|---------------------------------------------------------------------------|
E|---------------------------------------------------------------------------|
    repeat the 13-11-10 5 times not 4, (Too lazy to fix it)
e|13-------------------------------------------------------13-------13-------|
B|---11-10-10-11-11-11-11-10-10-10-10-11-11-11-11-10-10-10----11-10----11-10-|
G|---------------------------------------------------------------------------|
D|---------------------------------------------------------------------------|
A|---------------------------------------------------------------------------|
E|---------------------------------------------------------------------------|

                                And end with this!
e|13-------13-------13-------------------------------------------------------|
B|---11-10----11-10----11-10-----------10----11p10-10------------------------|
G|----------------------------------10----10---------------------------------|
D|-------------------------------12------------------------------------------|
A|---------------------------------------------------------------------------|
E|---------------------------------------------------------------------------|

Sorry for the tab not being perfect, I dont have lots of time to do this
and I rushed it to get it out to you guys faster :D but it should be 99% perfect.

Ill accept requests!
Emails on at the beginning of the tab, make sure you name its a request and what song in
so I dont just check all the messages and delete without seeing your request.

| /  slide up
| \  slide down
| h  hammer-on
| p  pull-off
| ~  vibrato
| +  harmonic
| x  Mute note
| .  Palm Mute
===============================================================================
Tap to rate this tab
# A B C D E F G H I J K L M N O P Q R S T U V W X Y Z