Song name
# A B C D E F G H I J K L M N O P Q R S T U V W X Y Z

Killing The Dream - Thirty Four Seconds tab

-------------------------------------------------------------------------------
			     Thirty-Four Seconds - Killing The Dream
-------------------------------------------------------------------------------
Tabbed by: Brendan Pivin-Dans
Email: x-xbrendanx-x@hotmail.com

Tuning: Drop D

e|------------------------------------------------------------------------------|
B|------------------------------------------------------------------------------|
G|------------------------------------------------------------------------------|
D|-0-0-(x6)---5-5---1-1---0-0---0-0-----------8-8---4-4---0-0---0-0-------------|
A|-0-0--------5-5---1-1---0-0---0-0-feedback--8-8---4-4---0-0---0-0-------------|
E|-0-0--------5-5---1-1---0-0---0-0-----------8-8---4-4---0-0---0-0-------------|

e|---------------------------------------------------------------------------|
B|---------------------------------------------------------------------------|
G|--------------------------------------------------------------------2------|
D|-5-5---1-1---0-0---0-0---88884444---1p0------1p0------1p0------4----3------|
A|-5-5---1-1---0-0---0-0---88884444---1p0-0000-1p0-0000-1p0-0000-4-00--------|
E|-5-5---1-1---0-0---0-0---88884444---1p0-0000-1p0-0000-1p0-0000-4-00--------|

e|---------------------------------------------------------------------------|
B|---------------------------------------------------------------------------|
G|---------------------------------------------------------------------------|
D|-1p0------1p0------1p0------55551111---------------------------------------|
A|-1p0-0000-1p0-0000-1p0-0000-55551111---------------------------------------|
E|-1p0-0000-1p0-0000-1p0-0000-55551111---------------------------------------|
  This part is kinda hard to hear, and im still not the amazing guitarist so.. it might 
be correct, but its pretty close
e|-----------------------------------------------------------------------------|
B|-----------------------------------------------------------------------------|
G|-----------------------------------------------------------------------------|
D|----3-3----3-3----2-3----2-3-(x2)----3-3----3-3----2/3\2-----2/3\2-(x2)------|
A|--5------5------5------5-----------5------5------5--------5------------------|
E|-----------------------------------------------------------------------------|

e|-----------------------------------------------------------------------------|
B|-----------------------------------------------------------------------------|
G|--10--7-----7/9--10-101010--7--7-6--6/9-9------------------------------------|
D|--x---x-----x-x--x--x-x-x---x--x-x--x-x-x--(x2)------------------------------|
A|--8---5-----5/7--8--8-8-8---5--5-4--4/7-7------------------------------------|
E|-----------------------------------------------------------------------------|
The second time you do this ^ strum the last octaves in eigth notes
e|-----------------------------------------------------------------------------|
B|-----------------------------------------------------------------------------|
G|10101010101010101010101010101010-1212121212121212-1414141414141414-----------|
D|-x-x-x-x-x-x-x-x-x-x-x-x-x-x-x-x--x-x-x-x-x-x-x-x--x-x-x-x-x-x-x-x-----------|
A|-8-8-8-8-8-8-8-8-8-8-8-8-8-8-8-8-1010101010101010-1212121212121212-----------|
E|-----------------------------------------------------------------------------|

e|-----------------------------------------------------------------------------|
B|-----------------------------------------------------------------------------|
G|-1515151515151515-1414141414141414-19191919191919191919191919191919----------|
D|--x-x-x-x-x-x-x-x--x-x-x-x-x-x-x-x--x-x-x-x-x-x-x-x-x-x-x-x-x-x-x-x----------|
A|-1313131313131313-1212121212121212-17171717171717171717171717171717----------|
E|-----------------------------------------------------------------------------|

e|-----------------------------------------------------------------------------|
B|-----------------------------------------------------------------------------|
G|-----------------------------------------------------------------------------|
D|--8-8----8-8----8-8x-8~~-----------------------------------------------------|
A|--8-8-88-8-8-88-8-8x-8~~-----------------------------------------------------|
E|--8-8-88-8-8-88-8-8x-8~~-----------------------------------------------------|

e|---------------------------------------------------------------------------|
B|---------------------------------------------------------------------------|
G|-10101010101010-99999999-77777777-55554444-(x3)----------------------------|
D|--8-8-8-8-8-8-8-77777777-55555555-33332222---------------------------------|
A|---------------------------------------------------------------------------|
E|---------------------------------------------------------------------------|
Times 3^ cuz you let the barred 888 chord ring over the first measure, depends how you 
it, since its the other guitar that does it, I just tabbed out the lead guitar, not just 
of the guitars
e|-----8----10---12--13-10--10----8----10---12--13-10--10--(x2)--------------|
B|--10---10----10--10-----10---10---10----10--10-----10----------------------|
G|---------------------------------------------------------------------------|
D|---------------------------------------------------------------------------|
A|---------------------------------------------------------------------------|
E|---------------------------------------------------------------------------|
   ^ This part im not sure i got all the notes in but its pretty close
e|-131313121212----131313121212----131313121212--10101010101010-(x2)------------|
B|-------------1013------------1013------------10-------------------------------|
G|------------------------------------------------------------------------------|
D|------------------------------------------------------------------------------|
A|------------------------------------------------------------------------------|
E|------------------------------------------------------------------------------|

e|---------------------------------------------10--12--13----------------------|
B|-10--13--15--17--18--13--10--13---or-10--13--------------13--10--13----------|
G|-----------------------------------------------------------------------------|
D|-----------------------------------------------------------------------------|
A|-----------------------------------------------------------------------------|
E|-----------------------------------------------------------------------------|
    ^ Depends if you wanna slide all the notes to make it sound..diffent

Sorry i know this tab isn't perfect, the end is kinda hard to hear cuz he
lets the note ring on 2 different strings so its harder to hear, but hope
you enjoy it!

************************************

| /   slide up
| \   slide down
| h   hammer-on
| p   pull-off
| ~   vibrato
| +   harmonic
| x   Mute note
| b   Bend
| pb  Pre-bend
| br  Bend release
| pbr Pre-bend release
| brb Bend release bend

************************************
Tap to rate this tab
 
# A B C D E F G H I J K L M N O P Q R S T U V W X Y Z