Song name
# A B C D E F G H I J K L M N O P Q R S T U V W X Y Z

Killing The Dream - Black tab

Black
Killing The Dream
Lucky Me

Drop C#

This tab is not 100% accurate. Problem? Come at me bro.
I've only put down the basics, can't be cussed doing all the details.

--6-66-------------6-66----------|
-------888--------------888------|
-----------777-OR-----------7-5--|
---------------------------------|
---------------------------------|
---------------------------------|

-------------------|
-------------------|
------------5---4--|
-------------------|
--0---2-3---3---2--|
--0---2-3----------|

-------------------------------|
-------------------------------|
-------------------------------|
--8------0------3------5-------|
--8------0------3------5-------|
--8-8888-0-0000-3-3333-5-5555--|


-------------------------|
-------------------------|
--14--14--9--12----------|
-------------------------|
--12--12--7--10----------|
-------------------------|


-------------------------|
-------------------------|
-------------------------|
-------------------------|
--8--0--3--5-------------|
--8--0--3--5-------------|


---------------------------|
---------------------------|
--5555-10101010-9999-7777--|
---------------------------|
---------------------------|
---------------------------|

--0--
-------------------|
--0---2-3---3---2--|
--0---2-3----------|

-------------------------------|
-------------------------------|
-------------------------------|
--8------0------3------5-------|
--8------0------3------5-------|
--8-8888-0-0000-3-3333-5-5555--|


-------------------------|
-------------------------|
--14--14--9--12----------|
-------------------------|
--12--12--7--10----------|
-------------------------|


-------------------------|
-------------------------|
-------------------------|
-------------------------|
--8--0--3--5-------------|
--8--0--3--5-------------|


---------------------------|
---------------------------|
--5555-10101010-9999-7777--|
---------------------------|
---------------------------|
---------------------------|

--0--
-------------------|
--0---2-3---3---2--|
--0---2-3----------|

-------------------------------|
-------------------------------|
-------------------------------|
--8------0------3------5-------|
--8------0------3------5-------|
--8-8888-0-0000-3-3333-5-5555--|


-------------------------|
-------------------------|
--14--14--9--12----------|
-------------------------|
--12--12--7--10----------|
-------------------------|


-------------------------|
-------------------------|
-------------------------|
-------------------------|
--8--0--3--5-------------|
--8--0--3--5-------------|


---------------------------|
---------------------------|
--5555-10101010-9999-7777--|
---------------------------|
---------------------------|
---------------------------|

-------------------|
--0---2-3---3---2--|
--0---2-3----------|

-------------------------------|
-------------------------------|
-------------------------------|
--8------0------3------5-------|
--8------0------3------5-------|
--8-8888-0-0000-3-3333-5-5555--|


-------------------------|
-------------------------|
--14--14--9--12----------|
-------------------------|
--12--12--7--10----------|
-------------------------|


-------------------------|
-------------------------|
-------------------------|
-------------------------|
--8--0--3--5-------------|
--8--0--3--5-------------|


---------------------------|
---------------------------|
--5555-10101010-9999-7777--|
---------------------------|
---------------------------|
---------------------------|

--0--
-------------------|
--0---2-3---3---2--|
--0---2-3----------|

-------------------------------|
-------------------------------|
-------------------------------|
--8------0------3------5-------|
--8------0------3------5-------|
--8-8888-0-0000-3-3333-5-5555--|


-------------------------|
-------------------------|
--14--14--9--12----------|
-------------------------|
--12--12--7--10----------|
-------------------------|


-------------------------|
-------------------------|
-------------------------|
-------------------------|
--8--0--3--5-------------|
--8--0--3--5-------------|


---------------------------|
---------------------------|
--5555-10101010-9999-7777--|
---------------------------|
---------------------------|
---------------------------|

G#--0--
C#--0--

So, probs the best band to ever grace the earth since Queen.
come at me bro.
Tap to rate this tab
 
# A B C D E F G H I J K L M N O P Q R S T U V W X Y Z