Song name
# A B C D E F G H I J K L M N O P Q R S T U V W X Y Z

Killjoys - Sally Wont tab

-----SALLY WON'T--------|
-----THE KILLJOYS-------|
   -----STARRY----------|

Tuning..... Standard  E B G D A E

Verse
G5 A5 B5 C5                         D5
I know... that we used to share the same address and...

Pre-chorus
C              D
Sally won't be with me anymore...

Chorus
C      C/B     C/A             G
                Sally won't be with me anymore....

Solo
E-----()-------------------------------|
B-5--5b--3--3-3-3----------------3-3-3-|
G-----------------5-5-5-5--4-4-5-------|
D--------------------------------------|  2x's then..
A--------------------------------------|
E--------------------------------------|

E-------5-3--3-3-3-3-3-3-3-5-5-3h5p3p0-|
B-5--5---------------------------------|
G--------------------------------------|
D--------------------------------------|  then back to the 1st part of
A--------------------------------------|  the solo 1x
E--------------------------------------|

Whoop de doo.
Tap to rate this tab
# A B C D E F G H I J K L M N O P Q R S T U V W X Y Z