Song name
# A B C D E F G H I J K L M N O P Q R S T U V W X Y Z

Killswitch Engage - Untitled And Unloved tab

Untitled and Unloved by Killswitch Engage.
From the album: Alive or Just Breathing [Disc 2].

Tabbed by: IVAN
Email: http://www.myspace.com/chingotumadre

Tuning: C G C F A D

On the intro hammer-ons i use my fingers.  The rest i pick.

GUITAR 1 (Repeat as many times as needed)

D|----------------------------------------------------------------------------|
A|------3-----------------------------3------3------5-----5-------------------|
F|--0h2---2-----------------------0h2---2--------5--5--5--5-------------------|
C|------------0---0---0---0----------------------5--5--5--5-------------------|
G|--5---------0---0---0---0-------5--------5-----3-----3----------------------|
C|------------0---0---0---0---------------------------------------------------|

D|----------------------------------------------------------------------------|
A|------3-----------------------------3------3------5-----5-------------------|
F|--0h2---2-----------------------0h2---2--------5--5--5--5-------------------|
C|------------0---0---0---0----------------------5--5--5--5-------------------|
G|--5---------0---0---0---0-------5--------5-----3-----3----------------------|
C|------------0---0---0---0---------------------------------------------------|


GUITAR 2 (Repeat as many times as needed)


D|---0h1-111-3333p1-111--5555p1-111--333-0000-1111---11111-3333p1-111--5555p1-111--333-0000-1111|
A|---3---333-3333---333--3333---333--333-3333-3333---33333-3333---333--3333---333--333-3333-3333|
F|---2---222-2222---222--2222---222--222-2222-2222---22222-2222---222--2222---222--222-2222-2222-|
C|-----------------------------------------------------------------------------------------------|
G|-----------------------------------------------------------------------------------------------|
C|-----------------------------------------------------------------------------------------------|


D|---0h1-111-3333p1-111--5555p1-111--333-0000-1111---11111-3333p1-111--5555p1-111--333-0000-1111|
A|---3---333-3333---333--3333---333--333-3333-3333---33333-3333---333--3333---333--333-3333-3333|
F|---2---222-2222---222--2222---222--222-2222-2222---22222-2222---222--2222---222--222-2222-2222|
C|----------------------------------------------------------------------------------------------|
G|----------------------------------------------------------------------------------------------|
C|----------------------------------------------------------------------------------------------|


**NOTE**

There is another guitar that comes in when Gtr 2 comes in,  that i could not figure out. 
Just mess around with the D, A, or F strings in Part two to get Gtr 3.
Tap to rate this tab
# A B C D E F G H I J K L M N O P Q R S T U V W X Y Z